Oops, an error
Loading. Please wait.

Liar It Takes One To Know One bass

version 2
version 2

Whole song

Interactive

3,383 views 6 this week
no commentswrite comment
1 2 3 4 5
1 last vote to show rating
add to favorites
×
Save as Personal and add changes to this tab that will be seen only by you. Learn more ›
×
You can save this tab as Personal to edit and correct it or add notes. All changes will be seen only by you. Learn more »
launch autoscroll
font size
0
reset
guitar tuner
edit
Autoscroll
slow
fast
+/-
esc
set tempo
stop
Liar (It Takes One To Know One)
Taking Back Sunday
Louder Now

Tabbed by Lec Segundo

Tuning: Half-Step Down (Eb Ab Db Gb)

Legend:

\ - Slide Out
x - Ghost Note
h - Hammer On
~ - Let Ring
______________________________________________________________-

INTRO

Gb|---------------|
Db|---------------|    
Ab|---------------|
Eb|--17(x95)------|

Then

Gb|-----------|
Db|-----------|    
Ab|-----------|
Eb|--12\------|

VERSE (Listen to the song for the timing)

Gb|-----------------|          \
Db|-----14----------|     3x    \
Ab|--12----12---12--|            \
Eb|-----------------|             \
                                   2x
Gb|----------------------|        /
Db|-----10---------------|       /
Ab|--8-----8---11-----14-|      /
Eb|----------------------|     /

REFRAIN

Gb|-------------------------------------------|
Db|-------------------------------------------|
Ab|--8-8-8-8-8-8-8-8-11-11-11-11-11-11-11-11--|
Eb|-------------------------------------------|

Gb|---------------------------------------------------|
Db|---------------------------------------------------|
Ab|--12-12-12-12-12-12-12-12-12-12-12-12-10-10-10-10--|
Eb|---------------------------------------------------|

Gb|-------------------------------------------|
Db|-------------------------------------------|
Ab|--8-8-8-8-8-8-8-8-11-11-11-11-11-11-11-11--|
Eb|-------------------------------------------|

Gb|---------------------------------------------------|
Db|---------------------------------------------------|
Ab|--12-12-12-12-12-12-12-12-10h12-10h12-10h12-10h12--|
Eb|---------------------------------------------------|

CHORUS

Gb|---------------------------------------------------|  \
Db|---------------------------------------------------|   \
Ab|--12-12-12-12-12-12-12-12-12-12-12-12-10-10-10-10--|    \
Eb|---------------------------------------------------|     \
                                                             \
Gb|---------------------------------------------------|       \
Db|--10-10-10-10-10-10-10-10-10-10-10-10-12-12-12-12--|        \
Ab|---------------------------------------------------|         \
Eb|---------------------------------------------------|          \
                                                                  2x
Gb|---------------------------------------------------|          /
Db|---------------------------------------------------|         /
Ab|--12-12-12-12-12-12-12-12-10-10-10-10-10-10-10-10--|        /
Eb|---------------------------------------------------|       /
                                                             /
Gb|-----------------------------------|                     /
Db|-----------------------------------|                    /
Ab|--8-8-8-8-8-8-8-8-8-8-8-8-8-8-8-8--|                   /
Eb|-----------------------------------|                  /

INTERLUDE

Gb|--------------|
Db|--------------|    
Ab|--------------|
Eb|--5(x31)------|

Then

Gb|-----------|
Db|-----------|
Ab|-----------|
Eb|--12\------|

REPEAT VERSE
REPEAT REFRAIN
REPEAT CHORUS

BREAK

Gb|--------------|
Db|--------------|    
Ab|--------------|
Eb|--4~----/7~---|

ADLIB 2x

Gb|---------------------------------------|
Db|---------------------------------------|
Ab|---------------------------------------|
Eb|--8-8-8-8-8-8-8-8-8-8-8-8-10-10-10-10--|

Gb|-----------------------------------|
Db|-----------------------------------|
Ab|-----------------------------------|
Eb|--8-8-8-8-8-8-8-8-8-8-8-8-4-4-4-4--|

Gb|-----------------------------------|
Db|-----------------------------------|
Ab|-----------------------------------|
Eb|--8-8-8-8-8-8-8-8-6-6-6-6-6-6-6-6--|

Gb|-----------------------------------|
Db|-----------------------------------|
Ab|-----------------------------------|
Eb|--4-4-4-4-4-4-4-4-4-4-4-4-3-3-3-3--|

REPEAT CHORUS

BRIDGE

Gb|---------------------------------------------------|
Db|---------------------------------------------------|
Ab|--12-12-12-12-12-12-12-12-12-12-12-12-10-10-10-10--|
Eb|---------------------------------------------------|

Gb|---------------------------------------------------|
Db|--10-10-10-10-10-10-10-10-10-10-10-10-12-12-12-12--|
Ab|---------------------------------------------------|
Eb|---------------------------------------------------|

Gb|---------------------------------------------------|
Db|---------------------------------------------------|
Ab|--12-12-12-12-12-12-12-12-10-10-10-10-10-10-10-10--|
Eb|---------------------------------------------------|

Gb|-----------------------------------|
Db|-----------------------------------|
Ab|--8-8-8-8-8-8-8-8-/11------/14-----|
Eb|-----------------------------------|

OUTRO (Listen to the song for the timing)

Gb|-------------------------------------------------|
Db|-------------------------------------------------|    
Ab|--0~--x-x--x-0~--x-x--x-0~--x-x--x-0~--x-x--x-0--|
Eb|-------------------------------------------------|

END

Please Rate!,... :o 

            
            
Suggest correction
Creating personal tab
Creating personal tab
You can edit any tab online and save it as your Personal.

You can edit, replace or remove any tab part or add personal notes – all changes will be seen only by you.

Personal tabs can be accessed anytime from any device, even offline.
Learn more »
Give kudos to tab author, rate the tab!
1 2 3 4 5
comments
print report bad tab
guest
You may want to rate the tab now too:
select rating
Wanna post a correction for this tab? Suggest correction