Oops, an error
Loading. Please wait.

Liar It Takes One To Know One tab

version 4
version 4

Whole song

Interactive

45,234 views 24 this week
6 commentsread comments
1 2 3 4 5
x 22
add to favorites
×
Save as Personal and add changes to this tab that will be seen only by you. Learn more ›
×
You can save this tab as Personal to edit and correct it or add notes. All changes will be seen only by you. Learn more »
launch autoscroll
font size
0
reset
how to read this tab
guitar tuner
edit
Autoscroll
slow
fast
+/-
esc
set tempo
stop
Title – Liar (It Takes One To Know One)
Artist- Taking Back Sunday
Album – Louder Now

Tabbed by: Larry A

Tuning: Half-Step Down (Eb Bb Gb Db Ab Eb)
                       (D# A# F# C# G# D#)
Guitar 1- Slight Distortion
Guitar 2- Distortion

 ___________________
| Intro (0:00-0:15) |
|___________________|

Guitar 1
eb| |---------------------------------|---------------------------------|
Bb| |---------------------------------|---------------------------------|
Gb| |---------------------------------|---------------------------------|
Db| |---------------------------------|---------------------------------|
Ab| |---------------------------------|---------------------------------|
Eb| |---------------------------------|---------------------------------|

Guitar 1
eb| |---------------------------------|---------------------------------|
Bb| |---------------------------------|---------------------------------|
Gb| |-5-5-5-5-5-5-5-5-5-5-5-5-7-7-7-7-|-9-9-9-9-9-9-9-9-9-9-9-910101010-|
Db| |-7-7-7-7-7-7-7-7-7-7-7-7-9-9-9-9-|10101010101010101010101012121212-|
Ab| |---------------------------------|---------------------------------|
Eb| |---------------------------------|---------------------------------|

Guitar 1
eb| |---------------------------------|---------------------------------|
Bb| |---------------------------------|---------------------------------|
Gb| |-5-5-5-5-5-5-5-5-4-4-4-4-4-4-4-4-|-2-2-2-2-2-2-2-2-1-1-1-1-4-4-4-4-|
Db| |-7-7-7-7-7-7-7-7-5-5-5-5-5-5-5-5-|-3-3-3-3-3-3-3-3-2-2-2-2-6-6-6-6-|
Ab| |---------------------------------|---------------------------------|
Eb| |---------------------------------|---------------------------------|
                                                                All our
 __________________
| Verse 0:15-0:36) |
|__________________|

Guitar 1
eb| |---------------------------------|---------------------------------|
Bb| |---------------------------------|---------------------------------|
Gb| |-5-5-5-5-5-5-5-5-5-5-5-5-7-7-7-7-|-9-9-9-9-9-9-9-9-9-9-9-910101010-|
Db| |-7-7-7-7-7-7-7-7-7-7-7-7-9-9-9-9-|10101010101010101010101012121212-|
Ab| |---------------------------------|---------------------------------|
Eb| |---------------------------------|---------------------------------|
      Secrets they are tailored trouble draped loose now around your hips

Guitar 1
eb| |---------------------------------|---------------------------------|
Bb| |---------------------------------|---------------------------------|
Gb| |-5-5-5-5-5-5-5-5-4-4-4-4-4-4-4-4-|-2-2-2-2-2-2-2-2-1-1-1-1-4-4-4-4-|
Db| |-7-7-7-7-7-7-7-7-5-5-5-5-5-5-5-5-|-3-3-3-3-3-3-3-3-2-2-2-2-6-6-6-6-|
Ab| |---------------------------------|---------------------------------|
Eb| |---------------------------------|---------------------------------|
      Your  spotless   instincts are    valid     we     co-exist       |
                                                                        |
Guitar 2                                                                |
eb| |---------------------------------|---------------------------------|
Bb| |---------------------------------|-------------------------x-x-x-x-|
Gb| |---------------------------------|-------------------------x-x-x-x-|
Db| |---------------------------------|-------------------------x-x-x-x-|
Ab| |---------------------------------|-------------------------x-x-x-x-|
Eb| |---------------------------------|---------------------------------|

Guitar 1
eb| |---------------------------------|---------------------------------|
Bb| |---------------------------------|---------------------------------|
Gb| |-5-5-5-5-5-5-5-5-5-5-5-5-7-7-7-7-|-9-9-9-9-9-9-9-9-9-9-9-910101010-|
Db| |-7-7-7-7-7-7-7-7-7-7-7-7-9-9-9-9-|10101010101010101010101012121212-|
Ab| |---------------------------------|---------------------------------|
Eb| |---------------------------------|---------------------------------|
      Got twenty six days to work with  Got twenty six days to work with|
                             (Got twenty six days...)         (It moves |
                                                                        |
Guitar 2                                                                |
eb| |---------------------------------|---------------------------------|
Bb| |10------10------10-------9-------|10------10---------------x-x-x-x-|
Gb| |-9-------9-------9-------9-------|-9-------9---------------x-x-x-x-|
Db| |10------10------10------10-------|10------10---------------x-x-x-x-|
Ab| |---------------------------------|-------------------------x-x-x-x-|
Eb| |---------------------------------|---------------------------------|

Guitar 1
eb| |---------------------------------|---------------------------------|
Bb| |---------------------------------|---------------------------------|
Gb| |-5-5-5-5-5-5-5-5-4-4-4-4-4-4-4-4-|-2-2-2-2-2-2-2-2-1-1-1-1-4-4-4-4-|
Db| |-7-7-7-7-7-7-7-7-5-5-5-5-5-5-5-5-|-3-3-3-3-3-3-3-3-2-2-2-2-6-6-6-6-|
Ab| |---------------------------------|---------------------------------|
Eb| |---------------------------------|---------------------------------|
               to see    what    all     gets      done      I'm an ad  |
      it    moves,    it    moves...   )                                |
                                                                        |
Guitar 2                                                                |
eb| |---------------------------------|---------------------------------|
Bb| |10------10-------9-------9-------|-7-------7-------9---------------|
Gb| |-9-------9-------9-------9-------|-7-------7-------8---------------|
Db| |10------10------10------10-------|-8-------8-------9---------------|
Ab| |---------------------------------|---------------------------------|
Eb| |---------------------------------|---------------------------------|

 ________________________
| Pre-Chorus (0:36-0:46) |
|________________________|

Guitar 1
eb| |---------------------------------|---------------------------------|
Bb| |---------------------------------|---------------------------------|
Gb| |---------------------------------|---------------------------------|
Db| |-3-3-3-3-3-3-3-3-6-6-6-6-6-6-6-6-|-7-7-7-7-7-7-7-7-7-7-7-7-5-5-5-5-|
Ab| |-3-3-3-3-3-3-3-3-7-7-7-7-7-7-7-7-|-7-7-7-7-7-7-7-7-7-7-7-7-5-5-5-5-|
Eb| |-1-1-1-1-1-1-1-1-4-4-4-4-4-4-4-4-|-5-5-5-5-5-5-5-5-5-5-5-5-3-3-3-3-|
      -dict for dramatics I confuse the two for love    You can tell me |
                                                        that you don't  |
                                                                        |
Guitar 2                                                                |
eb| |---------------------------------|---------------------------------|
Bb| |---------------------------------|---------------------------------|
Gb| |-5-5-5-5-5-5-5-5-9-9-9-9-7-7-7-7-|-9-9-9-9-9-9-9-9-9-9-9-9-7-7-7-7-|
Db| |-x-x-x-x-x-x-x-x-x-x-x-x-x-x-x-x-|-x-x-x-x-x-x-x-x-x-x-x-x-x-x-x-x-|
Ab| |-3-3-3-3-3-3-3-3-7-7-7-7-5-5-5-5-|-7-7-7-7-7-7-7-7-7-7-7-7-5-5-5-5-|
Eb| |---------------------------------|---------------------------------|

Guitar 1
eb| |---------------------------------|---------------------------------|
Bb| |---------------------------------|---------------------------------|
Gb| |---------------------------------|---------------------------------|
Db| |-3-3-3-3-3-3-3-3-6-6-6-6-6-6-6-6-|-7-7-7-7-7-7-7-7-----------------|
Ab| |-3-3-3-3-3-3-3-3-7-7-7-7-7-7-7-7-|-7-7-7-7-7-7-7-7-///////-\\\\\\\-|
Eb| |-1-1-1-1-1-1-1-1-4-4-4-4-4-4-4-4-|-5-5-5-5-5-5-5-5-\\\\\\\-///////-|
      Beg...                                                            |
     (Beg...)                                                           |
                                                                        |
Guitar 2                                                                |
eb| |---------------------------------|---------------------------------|
Bb| |---------------------------------|---------------------------------|
Gb| |-5-5-5-5-5-5-5-5-9-9-9-9-7-7-7-7-|-9-9-9-9-9-9-9-9-----------------|
Db| |-x-x-x-x-x-x-x-x-x-x-x-x-x-x-x-x-|-x-x-x-x-x-x-x-x-----------------|
Ab| |-3-3-3-3-3-3-3-3-7-7-7-7-5-5-5-5-|-7-7-7-7-7-7-7-7-///////-\\\\\\\-|
Eb| |---------------------------------|-----------------\\\\\\\-///////-|

 ____________________
| Chorus (0:46-1:06) |
|____________________|

Guitar 1
eb| |---------------------------------|---------------------------------|
Bb| |o--------------------------------|---------------------------------|
Gb| |-5-5-5-5-5-5-5-5-5-5-5-5-7-7-7-7-|-9-9-9-9-9-9-9-9-9-9-9-910101010-|
Db| |-7-7-7-7-7-7-7-7-7-7-7-7-9-9-9-9-|10101010101010101010101012121212-|
Ab| |o--------------------------------|---------------------------------|
Eb| |---------------------------------|---------------------------------|
   1. Liar                              If we're keeping score          |
                     (Liar)                                             |
   2. Liar                              If we're keeping score          |
                     (Liar)                                             |
                                                                        |
Guitar 2                                                                |
eb| |---------------------------------|---------------------------------|
Bb| |o--------------------------------|---------------------------------|
Gb| |---------------------------------|-5-5-5-5-5-5-5-5-5-5-5-5-7-7-7-7-|
Db| |-7-7-7-7-7-7-7-7-7-7-7-7-5-5-5-5-|-5-5-5-5-5-5-5-5-5-5-5-5-7-7-7-7-|
Ab| |o7-7-7-7-7-7-7-7-7-7-7-7-5-5-5-5-|-3-3-3-3-3-3-3-3-3-3-3-3-5-5-5-5-|
Eb| |-5-5-5-5-5-5-5-5-5-5-5-5-3-3-3-3-|---------------------------------|

Guitar 1
eb| |---------------------------------|---------------------------------|
Bb| |---------------------------------|--------------------------------o|
Gb| |-9-9-9-9-9-9-9-9-7-7-7-7-7-7-7-9-|-5-5-5-5-5-5-5-5-5-5-5-5-5-5-5-5-|
Db| |-x-x-x-x-x-x-x-x-x-x-x-x-x-x-x-x-|-x-x-x-x-x-x-x-x-x-x-x-x-x-x-x-x-|
Ab| |-7-7-7-7-7-7-7-7-5-5-5-5-5-5-5-7-|-3-3-3-3-3-3-3-3-3-3-3-3-3-3-3-3o|
Eb| |---------------------------------|---------------------------------|
   1. We're all choir boys at best                                      |
                                        (Intrusive and arrogant)        |
   2. We're all choir boys at best                                      |
                                        (Intrusive and arrogant)        |
                                                                        |
Guitar 2                                                                |
eb| |---------------------------------|---------------------------------|
Bb| |---------------------------------|--------------------------------o|
Gb| |---------------------------------|---------------------------------|
Db| |-7-7-7-7-7-7-7-7-5-5-5-5-5-5-5-5-|-3-3-3-3-3-3-3-3-3-3-3-3-3-3-3-3-|
Ab| |-7-7-7-7-7-7-7-7-5-5-5-5-5-5-5-5-|-3-3-3-3-3-3-3-3-3-3-3-3-3-3-3-3o|
Eb| |-5-5-5-5-5-5-5-5-3-3-3-3-3-3-3-3-|-1-1-1-1-1-1-1-1-1-1-1-1-1-1-1-1-|

 _______________________
| Interlude (1:06-1:12) |
|_______________________|

Guitar 1
eb| |-0~------------------------------|---------------------------------|
Bb| |-0~------------------------------|---------------------------------|
Gb| |-0~------------------------------|---------------------------------|
Db| |-7~------------------------------|---------------------------------|
Ab| |-7~------------------------------|---------------------------------|
Eb| |-5~------------------------------|---------------------------------|
      Got twenty six days to work with                        Then back
                                       (Got twenty six days...)

 ___________________
| Verse (1:12-1:32) |
|___________________|

Guitar 1
eb| |---------------------------------|---------------------------------|
Bb| |---------------------------------|---------------------------------|
Gb| |-5-5-5-5-5-5-5-5-5-5-5-5-7-7-7-7-|-9-9-9-9-9-9-9-9-9-9-9-910101010-|
Db| |-7-7-7-7-7-7-7-7-7-7-7-7-9-9-9-9-|10101010101010101010101012121212-|
Ab| |---------------------------------|---------------------------------|
Eb| |---------------------------------|---------------------------------|
      On the island that you sweat by   Still barely can afford...      |
                                                                        |
Guitar 2                                                                |
eb| |---------------------------------|---------------------------------|
Bb| |10------10------10-------9-------|10------10---------------x-x-x-x-|
Gb| |-9-------9-------9-------9-------|-9-------9---------------x-x-x-x-|
Db| |10------10------10------10-------|10------10---------------x-x-x-x-|
Ab| |---------------------------------|-------------------------x-x-x-x-|
Eb| |---------------------------------|---------------------------------|

Guitar 1
eb| |---------------------------------|---------------------------------|
Bb| |---------------------------------|---------------------------------|
Gb| |-5-5-5-5-5-5-5-5-4-4-4-4-4-4-4-4-|-2-2-2-2-2-2-2-2-1-1-1-1-4-4-4-4-|
Db| |-7-7-7-7-7-7-7-7-5-5-5-5-5-5-5-5-|-3-3-3-3-3-3-3-3-2-2-2-2-6-6-6-6-|
Ab| |---------------------------------|---------------------------------|
Eb| |---------------------------------|---------------------------------|
      It's still a question of          how long will this hold?        |
                                       (how long will this hold?)       |
                                                                        |
Guitar 2                                                                |
eb| |---------------------------------|---------------------------------|
Bb| |10------10-------9-------9-------|-7-------7-------9-------x-x-x-x-|
Gb| |-9-------9-------9-------9-------|-7-------7-------8-------x-x-x-x-|
Db| |10------10------10------10-------|-8-------8-------9-------x-x-x-x-|
Ab| |---------------------------------|-------------------------x-x-x-x-|
Eb| |---------------------------------|---------------------------------|

Guitar 1
eb| |---------------------------------|---------------------------------|
Bb| |---------------------------------|---------------------------------|
Gb| |-5-5-5-5-5-5-5-5-5-5-5-5-7-7-7-7-|-9-9-9-9-9-9-9-9-9-9-9-910101010-|
Db| |-7-7-7-7-7-7-7-7-7-7-7-7-9-9-9-9-|10101010101010101010101012121212-|
Ab| |---------------------------------|---------------------------------|
Eb| |---------------------------------|---------------------------------|
      Is it any  now that we are        Don't you go there not here not |
      different                                                     now |
                                                                        |
Guitar 2                                                                |
eb| |---------------------------------|---------------------------------|
Bb| |10------10------10-------9-------|10------10---------------x-x-x-x-|
Gb| |-9-------9-------9-------9-------|-9-------9---------------x-x-x-x-|
Db| |10------10------10------10-------|10------10---------------x-x-x-x-|
Ab| |---------------------------------|-------------------------x-x-x-x-|
Eb| |---------------------------------|---------------------------------|

Guitar 1
eb| |---------------------------------|---------------------------------|
Bb| |---------------------------------|---------------------------------|
Gb| |-5-5-5-5-5-5-5-5-4-4-4-4-4-4-4-4-|-2-2-2-2-2-2-2-2-1-1-1-1-4-4-4-4-|
Db| |-7-7-7-7-7-7-7-7-5-5-5-5-5-5-5-5-|-3-3-3-3-3-3-3-3-2-2-2-2-6-6-6-6-|
Ab| |---------------------------------|---------------------------------|
Eb| |---------------------------------|---------------------------------|
                                        Not here not now...   I'm an ad |
      (It    moves,   it    moves,   it   moves...   )                  |
                                                                        |
Guitar 2                                                                |
eb| |---------------------------------|---------------------------------|
Bb| |10------10-------9-------9-------|-7-------7-------9-----9---9---9-|
Gb| |-9-------9-------9-------9-------|-7-------7-------8-----8---8---8-|
Db| |10------10------10------10-------|-8-------8-------9-----9---9---9-|
Ab| |---------------------------------|---------------------------------|
Eb| |---------------------------------|---------------------------------|

 ________________________
| Pre-Chorus (1:32-1:42) |
|________________________|

Guitar 1
eb| |---------------------------------|---------------------------------|
Bb| |---------------------------------|---------------------------------|
Gb| |---------------------------------|---------------------------------|
Db| |-3-3-3-3-3-3-3-3-6-6-6-6-6-6-6-6-|-7-7-7-7-7-7-7-7-7-7-7-7-5-5-5-5-|
Ab| |-3-3-3-3-3-3-3-3-7-7-7-7-7-7-7-7-|-7-7-7-7-7-7-7-7-7-7-7-7-5-5-5-5-|
Eb| |-1-1-1-1-1-1-1-1-4-4-4-4-4-4-4-4-|-5-5-5-5-5-5-5-5-5-5-5-5-3-3-3-3-|
      -dict for dramatics I confuse the two for love    You can tell me |
                                                        that you don't  |
                                                                        |
Guitar 2                                                                |
eb| |---------------------------------|---------------------------------|
Bb| |---------------------------------|---------------------------------|
Gb| |-5-5-5-5-5-5-5-5-9-9-9-9-7-7-7-7-|-9-9-9-9-9-9-9-9-9-9-9-9-7-7-7-7-|
Db| |-x-x-x-x-x-x-x-x-x-x-x-x-x-x-x-x-|-x-x-x-x-x-x-x-x-x-x-x-x-x-x-x-x-|
Ab| |-3-3-3-3-3-3-3-3-7-7-7-7-5-5-5-5-|-7-7-7-7-7-7-7-7-7-7-7-7-5-5-5-5-|
Eb| |---------------------------------|---------------------------------|

Guitar 1
eb| |---------------------------------|---------------------------------|
Bb| |---------------------------------|---------------------------------|
Gb| |---------------------------------|---------------------------------|
Db| |-3-3-3-3-3-3-3-3-6-6-6-6-6-6-6-6-|-7-7-7-7-7-7-7-7-----------------|
Ab| |-3-3-3-3-3-3-3-3-7-7-7-7-7-7-7-7-|-7-7-7-7-7-7-7-7-///////-\\\\\\\-|
Eb| |-1-1-1-1-1-1-1-1-4-4-4-4-4-4-4-4-|-5-5-5-5-5-5-5-5-\\\\\\\-///////-|
      Beg...                                                            |
     (Beg...)                                                           |
                                                                        |
Guitar 2                                                                |
eb| |---------------------------------|---------------------------------|
Bb| |---------------------------------|---------------------------------|
Gb| |-5-5-5-5-5-5-5-5-9-9-9-9-7-7-7-7-|-9-9-9-9-9-9-9-9-----------------|
Db| |-x-x-x-x-x-x-x-x-x-x-x-x-x-x-x-x-|-x-x-x-x-x-x-x-x-----------------|
Ab| |-3-3-3-3-3-3-3-3-7-7-7-7-5-5-5-5-|-7-7-7-7-7-7-7-7-///////-\\\\\\\-|
Eb| |---------------------------------|-----------------\\\\\\\-///////-|

 ____________________
| Chorus (1:42-2:03) |
|____________________|

Guitar 1
eb| |---------------------------------|---------------------------------|
Bb| |o--------------------------------|---------------------------------|
Gb| |-5-5-5-5-5-5-5-5-5-5-5-5-7-7-7-7-|-9-9-9-9-9-9-9-9-9-9-9-910101010-|
Db| |-7-7-7-7-7-7-7-7-7-7-7-7-9-9-9-9-|10101010101010101010101012121212-|
Ab| |o--------------------------------|---------------------------------|
Eb| |---------------------------------|---------------------------------|
   1. Liar                              If we're keeping score          |
                     (Liar)                                             |
   2. Liar                              If we're keeping score          |
                     (Liar)                                             |
                                                                        |
Guitar 2                                                                |
eb| |---------------------------------|---------------------------------|
Bb| |o--------------------------------|---------------------------------|
Gb| |---------------------------------|-5-5-5-5-5-5-5-5-5-5-5-5-7-7-7-7-|
Db| |-7-7-7-7-7-7-7-7-7-7-7-7-5-5-5-5-|-5-5-5-5-5-5-5-5-5-5-5-5-7-7-7-7-|
Ab| |o7-7-7-7-7-7-7-7-7-7-7-7-5-5-5-5-|-3-3-3-3-3-3-3-3-3-3-3-3-5-5-5-5-|
Eb| |-5-5-5-5-5-5-5-5-5-5-5-5-3-3-3-3-|---------------------------------|

Guitar 1
eb| |---------------------------------|---------------------------------|
Bb| |---------------------------------|--------------------------------o|
Gb| |-9-9-9-9-9-9-9-9-7-7-7-7-7-7-7-9-|-5-5-5-5-5-5-5-5-5-5-5-5-5-5-5-5-|
Db| |-x-x-x-x-x-x-x-x-x-x-x-x-x-x-x-x-|-x-x-x-x-x-x-x-x-x-x-x-x-x-x-x-x-|
Ab| |-7-7-7-7-7-7-7-7-5-5-5-5-5-5-5-7-|-3-3-3-3-3-3-3-3-3-3-3-3-3-3-3-3o|
Eb| |---------------------------------|---------------------------------|
   1. We're all choir boys at best                                      |
                                        (Intrusive and arrogant)        |
   2. We're all choir boys at best                                      |
                                        (Intrusive and arrogant)        |
                                                                        |
Guitar 2                                                                |
eb| |---------------------------------|---------------------------------|
Bb| |---------------------------------|--------------------------------o|
Gb| |---------------------------------|---------------------------------|
Db| |-7-7-7-7-7-7-7-7-5-5-5-5-5-5-5-5-|-3-3-3-3-3-3-3-3-3-3-3-3-3-3-3-3-|
Ab| |-7-7-7-7-7-7-7-7-5-5-5-5-5-5-5-5-|-3-3-3-3-3-3-3-3-3-3-3-3-3-3-3-3o|
Eb| |-5-5-5-5-5-5-5-5-3-3-3-3-3-3-3-3-|-1-1-1-1-1-1-1-1-1-1-1-1-1-1-1-1-|

 ____________________
| Bridge (2:03-2:26) |
|____________________|

Guitar 1
eb| |---------------------------------|---------------------------------|
Bb| |---------------------------------|---------------------------------|
Gb| |-----------------4~--------------|-8-8-8-8-8-8-8-8-8-8-8-810101010-|
Db| |-6~--------------4~--------------|10101010101010101010101012121212-|
Ab| |-6~--------------2~--------------|---------------------------------|
Eb| |-4~------------------------------|---------------------------------|
      We're all choir boys at best                                      |
                                                                        |
Guitar 2                                                                |
eb| |---------------------------------|---------------------------------|
Bb| |---------------------------------|---------------------------------|
Gb| |-----------------4~--------------|---------------------------------|
Db| |-6~--------------4~--------------|10101010101010101010101010101010-|
Ab| |-6~--------------2~--------------|-x-x-x-x-x-x-x-x-x-x-x-x-x-x-x-x-|
Eb| |-4~------------------------------|-8-8-8-8-8-8-8-8-8-8-8-8-8-8-8-8-|

Guitar 1
eb| |---------------------------------|---------------------------------|
Bb| |---------------------------------|---------------------------------|
Gb| |12121212121212121212121213131313-|-8-8-8-8-8-8-8-8-7-7-7-7-7-7-7-7-|
Db| |13131313131313131313131315151515-|1010101010101010-8-8-8-8-8-8-8-8-|
Ab| |---------------------------------|---------------------------------|
Eb| |---------------------------------|---------------------------------|
                                                                        |
Guitar 2                                                                |
eb| |---------------------------------|---------------------------------|
Bb| |---------------------------------|---------------------------------|
Gb| |---------------------------------|---------------------------------|
Db| |10101010101010101010101010101010-|1010101010101010-8-8-8-8-8-8-8-8-|
Ab| |-x-x-x-x-x-x-x-x-x-x-x-x-x-x-x-x-|-x-x-x-x-x-x-x-x-x-x-x-x-x-x-x-x-|
Eb| |-8-8-8-8-8-8-8-8-8-8-8-8-8-8-8-8-|-8-8-8-8-8-8-8-8-6-6-6-6-6-6-6-6-|

Guitar 1
eb| |---------------------------------|---------------------------------|
Bb| |---------------------------------|---------------------------------|
Gb| |-5-5-5-5-5-5-5-5-5-5-5-5-7-7-7-7-|-8-8-8-8-8-8-8-8-8-8-8-810101010-|
Db| |-6-6-6-6-6-6-6-6-6-6-6-6-8-8-8-8-|10101010101010101010101012121212-|
Ab| |---------------------------------|---------------------------------|
Eb| |---------------------------------|---------------------------------|
                                                                        |
Guitar 2                                                                |
eb| |---------------------------------|---------------------------------|
Bb| |---------------------------------|---------------------------------|
Gb| |---------------------------------|---------------------------------|
Db| |-6-6-6-6-6-6-6-6-6-6-6-6-8-8-8-8-|10101010101010101010101010101010-|
Ab| |-x-x-x-x-x-x-x-x-x-x-x-x-x-x-x-x-|-x-x-x-x-x-x-x-x-x-x-x-x-x-x-x-x-|
Eb| |-4-4-4-4-4-4-4-4-4-4-4-4-6-6-6-6-|-8-8-8-8-8-8-8-8-8-8-8-8-8-8-8-8-|

Guitar 1
eb| |---------------------------------|---------------------------------|
Bb| |---------------------------------|---------------------------------|
Gb| |12121212121212121212121213131313-|-8-8-8-8-8-8-8-8-7-7-7-7-7-7-7-7-|
Db| |13131313131313131313131315151515-|1010101010101010-8-8-8-8-8-8-8-8-|
Ab| |---------------------------------|---------------------------------|
Eb| |---------------------------------|---------------------------------|
                                                                        |
Guitar 2                                                                |
eb| |---------------------------------|---------------------------------|
Bb| |---------------------------------|---------------------------------|
Gb| |---------------------------------|---------------------------------|
Db| |10101010101010101010101010101010-|1010101010101010-8-8-8-8-8-8-8-8-|
Ab| |-x-x-x-x-x-x-x-x-x-x-x-x-x-x-x-x-|-x-x-x-x-x-x-x-x-x-x-x-x-x-x-x-x-|
Eb| |-8-8-8-8-8-8-8-8-8-8-8-8-8-8-8-8-|-8-8-8-8-8-8-8-8-6-6-6-6-6-6-6-6-|

Guitar 1
eb| |---------------------------------|
Bb| |---------------------------------|
Gb| |-5-5-5-5-5-5-5-5-5-5-5-5-5-5-5-5-|
Db| |-6-6-6-6-6-6-6-6-6-6-6-6-6-6-6-6-|
Ab| |---------------------------------|
Eb| |---------------------------------|
                                      |
Guitar 2                              |
eb| |---------------------------------|
Bb| |---------------------------------|
Gb| |---------------------------------|
Db| |-6-6-6-6-6-6-6-6-6-6-6-6-6-6-6-6-|
Ab| |-x-x-x-x-x-x-x-x-x-x-x-x-x-x-x-x-|
Eb| |-4-4-4-4-4-4-4-4-4-4-4-4-4-4-4-4-|

 ____________________
| Chorus (2:26-2:46) |
|____________________|

Guitar 1
eb| |---------------------------------|---------------------------------|
Bb| |o--------------------------------|---------------------------------|
Gb| |-5-5-5-5-5-5-5-5-5-5-5-5-7-7-7-7-|-9-9-9-9-9-9-9-9-9-9-9-910101010-|
Db| |-7-7-7-7-7-7-7-7-7-7-7-7-9-9-9-9-|10101010101010101010101012121212-|
Ab| |o--------------------------------|---------------------------------|
Eb| |---------------------------------|---------------------------------|
   1. Liar                              If we're keeping score          |
                     (Liar)                                             |
   2. Liar                              If we're keeping score          |
                     (Liar)                                             |
                                                                        |
Guitar 2                                                                |
eb| |---------------------------------|---------------------------------|
Bb| |o--------------------------------|---------------------------------|
Gb| |---------------------------------|-5-5-5-5-5-5-5-5-5-5-5-5-7-7-7-7-|
Db| |-7-7-7-7-7-7-7-7-7-7-7-7-5-5-5-5-|-5-5-5-5-5-5-5-5-5-5-5-5-7-7-7-7-|
Ab| |o7-7-7-7-7-7-7-7-7-7-7-7-5-5-5-5-|-3-3-3-3-3-3-3-3-3-3-3-3-5-5-5-5-|
Eb| |-5-5-5-5-5-5-5-5-5-5-5-5-3-3-3-3-|---------------------------------|

Guitar 1
eb| |---------------------------------|---------------------------------|
Bb| |---------------------------------|--------------------------------o|
Gb| |-9-9-9-9-9-9-9-9-7-7-7-7-7-7-7-9-|-5-5-5-5-5-5-5-5-5-5-5-5-5-5-5-5-|
Db| |-x-x-x-x-x-x-x-x-x-x-x-x-x-x-x-x-|-x-x-x-x-x-x-x-x-x-x-x-x-x-x-x-x-|
Ab| |-7-7-7-7-7-7-7-7-5-5-5-5-5-5-5-7-|-3-3-3-3-3-3-3-3-3-3-3-3-3-3-3-3o|
Eb| |---------------------------------|---------------------------------|
   1. We're all choir boys at best                                      |
                                        (Intrusive and arrogant)        |
   2. We're all choir boys at best                                      |
                                        (Intrusive and arrogant)        |
                                                                        |
Guitar 2                                                                |
eb| |---------------------------------|---------------------------------|
Bb| |---------------------------------|--------------------------------o|
Gb| |---------------------------------|---------------------------------|
Db| |-7-7-7-7-7-7-7-7-5-5-5-5-5-5-5-5-|-3-3-3-3-3-3-3-3-3-3-3-3-3-3-3-3-|
Ab| |-7-7-7-7-7-7-7-7-5-5-5-5-5-5-5-5-|-3-3-3-3-3-3-3-3-3-3-3-3-3-3-3-3o|
Eb| |-5-5-5-5-5-5-5-5-3-3-3-3-3-3-3-3-|-1-1-1-1-1-1-1-1-1-1-1-1-1-1-1-1-|

 ___________________
| Outro (2:46-3:09) |
|___________________|

Guitar 1
eb| |---------------------------------|---------------------------------|
Bb| |---------------------------------|---------------------------------|
Gb| |-5-5-5-5-5-5-5-5-5-5-5-5-7-7-7-7-|-9-9-9-9-9-9-9-9-9-9-9-910101010-|
Db| |-7-7-7-7-7-7-7-7-7-7-7-7-9-9-9-9-|10101010101010101010101012121212-|
Ab| |---------------------------------|---------------------------------|
Eb| |---------------------------------|---------------------------------|
      Liar                              Liar                            |
                     (Liar)                            (Liar)           |
                                                                        |
Guitar 2                                                                |
eb| |---------------------------------|---------------------------------|
Bb| |---------------------------------|---------------------------------|
Gb| |---------------------------------|-5-5-5-5-5-5-5-5-5-5-5-5-7-7-7-7-|
Db| |-7-7-7-7-7-7-7-7-7-7-7-7-5-5-5-5-|-5-5-5-5-5-5-5-5-5-5-5-5-7-7-7-7-|
Ab| |-7-7-7-7-7-7-7-7-7-7-7-7-5-5-5-5-|-3-3-3-3-3-3-3-3-3-3-3-3-5-5-5-5-|
Eb| |-5-5-5-5-5-5-5-5-5-5-5-5-3-3-3-3-|---------------------------------|

Guitar 1
eb| |---------------------------------|---------------------------------|
Bb| |---------------------------------|---------------------------------|
Gb| |-5-5-5-5-5-5-5-5-4-4-4-4-4-4-4-4-|-2-2-2-2-2-2-2-2-1-1-1-1-----4---|
Db| |-7-7-7-7-7-7-7-7-5-5-5-5-5-5-5-5-|-3-3-3-3-3-3-3-3-2-2-2-2-6---4---|
Ab| |---------------------------------|-------------------------6---2---|
Eb| |---------------------------------|-------------------------4-------|
      It      takes     one     to      know    one                     |
                                                                        |
Guitar 2                                                                |
eb| |---------------------------------|---------------------------------|
Bb| |---------------------------------|---------------------------------|
Gb| |---------------------------------|-----------------------------4---|
Db| |-7-7-7-7-7-7-7-7-5-5-5-5-5-5-5-5-|-3-3-3-3-3-3-3-3-3-3-3-3-6---4---|
Ab| |-7-7-7-7-7-7-7-7-5-5-5-5-5-5-5-5-|-3-3-3-3-3-3-3-3-3-3-3-3-6---2---|
Eb| |-5-5-5-5-5-5-5-5-3-3-3-3-3-3-3-3-|-1-1-1-1-1-1-1-1-1-1-1-1-4-------|

Guitar 1
eb| |---------------------------------|---------------------------------|
Bb| |---------------------------------|---------------------------------|
Gb| |-5-5-5-5-5-5-5-5-5-5-5-5-5-5-5-5-|-5-5-5-5-5-5-5-5-5-5-5-5-4-4-4-4-|
Db| |-7-7-7-7-7-7-7-7-7-7-7-7-7-7-7-7-|-7-7-7-7-7-7-7-7-7-7-7-7-6-6-6-6-|
Ab| |---------------------------------|---------------------------------|
Eb| |---------------------------------|---------------------------------|
                                                                        |
Guitar 2                                                                |
eb| |---------------------------------|---------------------------------|
Bb| |---------------------------------|---------------------------------|
Gb| |---------------------------------|---------------------------------|
Db| |-7---x-x-x-----x-7---x-x-x-----x-|-7---x-x-x-----x-7---x-x-x-----x-|
Ab| |-7---x-x-x-----x-7---x-x-x-----x-|-7---x-x-x-----x-7---x-x-x-----x-|
Eb| |-5---x-x-x-----x-5---x-x-x-----x-|-5---x-x-x-----x-5---x-x-x-----x-|

Guitar 1
eb| |---------------------------------|---------------------------------|
Bb| |---------------------------------|---------------------------------|
Gb| |-5-------------------------------|---------------------------------|
Db| |-7-------------------------------|---------------------------------|
Ab| |---------------------------------|---------------------------------|
Eb| |---------------------------------|---------------------------------|
                                                                        |
Guitar 2                                                                |
eb| |---------------------------------|---------------------------------|
Bb| |---------------------------------|---------------------------------|
Gb| |---------------------------------|---------------------------------|
Db| |-7~------------------------------|---------------------------------|
Ab| |-7~------------------------------|---------------------------------|
Eb| |-5~------------------------------|---------------------------------|


 ________
| Legend |
|________|

x      - Mute
~      - Sustain
///\\\ - Pick Scrape
\\\///

 _______
| Notes |
|_______|

This is the new single and it's pretty easy to play.
Suggest correction
Creating personal tab
Creating personal tab
You can edit any tab online and save it as your Personal.

You can edit, replace or remove any tab part or add personal notes – all changes will be seen only by you.

Personal tabs can be accessed anytime from any device, even offline.
Learn more »
comments
print report bad tab
6 comments total. Showing first comments.
+1 reply
stoneman44 242 Aug 21, 2007 07:46 PM

good tab man
well done

+1 reply
wongtong 87 Nov 09, 2007 02:56 PM

Great job.
(:

+1 reply
yamaha182 302 Nov 19, 2007 10:21 AM

yeaah

guest
You may want to rate the tab now too:
select rating
Wanna post a correction for this tab? Suggest correction