Oops, an error
Loading. Please wait.

Little Devotional tab

version 3
version 3

Whole song

160 views 1 this week
no commentswrite comment
1 2 3 4 5
3 more votes to show rating
add to favorites
×
Save as Personal and add changes to this tab that will be seen only by you. Learn more ›
×
You can save this tab as Personal to edit and correct it or add notes. All changes will be seen only by you. Learn more »
launch autoscroll
font size
0
reset
how to read this tab
guitar tuner
edit
Autoscroll
slow
fast
+/-
esc
set tempo
stop
Author
Difficulty
-------------------------------------------------------------------------------
                             LITTLE DEVOTIONAL
-------------------------------------------------------------------------------
Tabbed by: Matthew Florio; http://www.facebook.com/smeeplayscheap
E-mail: Shempashland@yahoo.com

Tuning: Standard 


Intro

-bass then these chords (down stroke/up stroke/down stroke) then pick scrape-
e|--000~---------------------------------------------------------------------|
B|--000~---------------------------------------------------------------------|
G|--999~---------------------------------------------------------------------|
D|--xxx~---------------------------------------------------------------------|
A|--777~---------------------------------------------------------------------|
E|--000~---------------------------------------------------------------------|


e|-----------7p0--------------------------11p0-7p0---------------------------|
B|-------7p0----7p0--------------------7p0---------7/9-----------------------|
G|---8h9------------9/11-8h9-----9-8h9----------------9h11-8h9---------------|
D|---------------------------9h11--------------------------------------------|
A|---------------------------------------------------------------------------|
E|---------------------------------------------------------------------------|

Verse
e|--0~-----------------------------------------------------------------------|
B|--0~-9----10p9---9----9----10p9---7-----7-7----7-----7-7-------------------|
G|--9~---9-----------9----9------9----9----9-9-----9----9-9------------------|
D|--9~-----9-----9-----9----9-----------9---9-9------9---9-9-----------------|
A|--7~-----------------------------------------------------------------------|
E|--0~-----------------------------------------------------------------------|

Chorus
e|--0000000000000000---------------------------------------------------------|
B|--0000000000000000---------------------------------------------------------|
G|--9999999999999999---------------------------------------------------------|
D|--9999999999999999---------------------------------------------------------|
A|--7777xxxx7777xx00---------------------------------------------------------|
E|------7777----99-----------------------------------------------------------|
"gonna have myself in..."

Verse
e|--0~-----------------------------------------------------------------------|
B|--0~-9----10p9---9----9----10p9---7-----7-7----7-----7-7-------------------|
G|--9~---9-----------9----9------9----9----9-9-----9----9-9------------------|
D|--9~-----9-----9-----9----9-----------9---9-9------9---9-9-----------------|
A|--7~-----------------------------------------------------------------------|
E|--0~-----------------------------------------------------------------------|

Pre Chorus
* Palm Mute (ease off)
e|---------------------------------------------------------------------------|
B|---------------------------------------------------------------------------|
G|-999999-999999-999999--------999999-11 11 11 11 11 11----------------------|
D|-999999-999999-999999-444444-999999--9--9--9--9--9--9-14-1414141414-444444-|
A|-xxxxxx-xxxxxx-000000-444444-xxxxxx--x--x--x--x--x--x-14-1414141414-444444-|
E|-999999-777777--------222222-999999-11 11 11 11 11 11-12 1212121212-222222-|
                                                                      ****
"do you think that it'd be better..."

Bridge
[2:00]
e|---------------------------------------------------------------------------|
B|--000000000000000000000----------------------------------------------------|
G|--4h666664h666664h66666----------------------------------------------------|
D|---------------------------------------------------------------------------|
A|---------------------------------------------------------------------------|
E|---------------------------------------------------------------------------|
    *********************

[2:13]
e|---------------------------------------------------------------------------|
B|---------------------------------------------------------------------------|
G|-999999-999999-999999--------999999-11 11 11 11 11 11----------------------|
D|-999999-999999-999999-444444-999999--9--9--9--9--9--9-14-1414141414-444444-|
A|-xxxxxx-xxxxxx-000000-444444-xxxxxx--x--x--x--x--x--x-14-1414141414-444444-|
E|-999999-777777--------222222-999999-11 11 11 11 11 11-12 1212121212-222222-|



Chorus till end but then play the Intro riff in the last few times.


************************************

| /   slide up
| \   slide down
| h   hammer-on
| p   pull-off
| ~   vibrato
| +   harmonic
| x   Mute note
| b   Bend
| pb  Pre-bend
| br  Bend release
| pbr Pre-bend release
| brb Bend release bend

************************************
Suggest correction
Creating personal tab
Creating personal tab
You can edit any tab online and save it as your Personal.

You can edit, replace or remove any tab part or add personal notes – all changes will be seen only by you.

Personal tabs can be accessed anytime from any device, even offline.
Learn more »
Give kudos to tab author, rate the tab!
1 2 3 4 5
comments
print report bad tab
guest
You may want to rate the tab now too:
select rating
Wanna post a correction for this tab? Suggest correction