Oops, an error
Loading. Please wait.

Miami Bass Tab

version 1
version 1

Whole song

Interactive

49 views 1 this week
no commentswrite comment
1 2 3 4 5
3 more votes to show rating
add to favorites
launch autoscroll
font size
0
reset
guitar tuner
Autoscroll
slow
fast
+/-
esc
set tempo
stop
Help us to improve Ultimate-Guitar.com Take our survey!
×
Taking Back Sunday - Miami

Tabbed by: Ash (XxThreeCheersxX)
email: burdickash@gmail.com

Tuning: Standard

Intro (just muted strumming)

Verse I 
G|----------------------------------------------------------------------------------|
D|-7-7-7-7x----7-7-----5-5----------------------------------------------------------|
A|-----------------7-7-----5-5-7-7-7-7x----7-8-8-8-8x----7-8-8-8-8x-----8-8-8-8x----|
E|----------------------------------------------------------------------------------|
                                                                                          x 2
G|---------------------------|
D|---7-7-7-7x----5-5-5-5x----|
A|-8-------------------------|
E|---------------------------|

(when second guitar comes in)
G|----------------------------------------------------------------------------------|
D|-7-7-7-7x----7-7-----5-5----------------------------------------------------------|
A|-----------------7-7-----5-5-7-7-7-7x----7-8-8-8-8x----7-8-8-8-8x-----8-8-8-8x----|
E|----------------------------------------------------------------------------------|

G|-------------------------|
D|---7-7-7-7x----5-5-5x----|
A|-8-----------------------|
E|-------------------------|

Chorus
G|-----------------------------------------------------------------|
D|-----------------------------------------------------------------|
A|-----------------------------------------------------------2-2-2-|
E|-0-0-0-1--1-1-1-1-1-1-1-1-1-1-3-3-3-5--5-5-5-5-5-5-5-5-5-5-------|

G|-----------------------------------------------------|
D|-----------------------------------------------------|
A|-3--3-3-3-3-3-3-3-3-3-3------------------------------|
E|------------------------3-3-3-1--1-1-1-1-1-1-1-1-1-1-|

G|-----------------------------------------------------------------|
D|-----------------------------------------------------------------|
A|-----------------------------------------------------------2-2-2-|
E|-0-0-0-1--1-1-1-1-1-1-1-1-1-1-3-3-3-5--5-5-5-5-5-5-5-5-5-5-------|

G|-------------------------------------------------------------|
D|-------------------------------------------------------------|
A|-3--3-3-3-3-3-3-3-3-3-3--------------------------------------|
E|------------------------3-3-3-1--1-1-1-1-1-1-1-1-1-1-1-1-1-1-|

Verse II
G|----------------------------------------------------------------------------------|
D|-7-7-7-7x----7-7-----5-5----------------------------------------------------------|
A|-----------------7-7-----5-5-7-7-7-7x----7-8-8-8-8x----7-8-8-8-8x-----8-8-8-8x----|
E|----------------------------------------------------------------------------------|
                                                                                          
G|---------------------------|
D|---7-7-7-7x----5-5-5-5x----|
A|-8-------------------------|
E|---------------------------|

G|----------------------------------------------------------------------------------|
D|-7-7-7-7x----7-7-----5-5----------------------------------------------------------|
A|-----------------7-7-----5-5-7-7-7-7x----7-8-8-8-8x----7-8-8-8-8x-----8-8-8-8x----|
E|----------------------------------------------------------------------------------|

G|-------------------------|
D|---7-7-7-7x----5-5-5x----|
A|-8-----------------------|
E|-------------------------|

Chorus II
G|-----------------------------------------------------------------|
D|-----------------------------------------------------------------|
A|-----------------------------------------------------------2-2-2-|
E|-0-0-0-1--1-1-1-1-1-1-1-1-1-1-3-3-3-5--5-5-5-5-5-5-5-5-5-5-------|

G|-----------------------------------------------------|
D|-----------------------------------------------------|
A|-3--3-3-3-3-3-3-3-3-3-3------------------------------|
E|------------------------3-3-3-1--1-1-1-1-1-1-1-1-1-1-|

G|-----------------------------------------------------------------|
D|-----------------------------------------------------------------|
A|-----------------------------------------------------------2-2-2-|
E|-0-0-0-1--1-1-1-1-1-1-1-1-1-1-3-3-3-5--5-5-5-5-5-5-5-5-5-5-------|

G|-----------------------------------------------------------------|
D|-----------------------------------------------------------------|
A|-3--3-3-3-3-3-3-3-3-3-3------------------------------------------|
E|------------------------3-3-3-1--1-1-1-1-1-1-1-1-1-1/13-13-13-13-|

Guitar Solo
G|------------------------------------------------------------------------|
D|------------------------------------------------------------------------|
A|------------------------------------------------------------------2-2-2-|
E|-13-13-13-13-13-13-13-13-13-13-13-13-3-3-3-5--5-5-5-5-5-5-5-5-5-5-------|

G|-----------------------------------------------------|
D|-----------------------------------------------------|
A|-3--3-3-3-3-3-3-3-3-3-3------------------------------|
E|------------------------3-3-3-1--1-1-1-1-1-1-1-1-1-1-|

Bridge
G|-----------------------------------------------------------------|
D|-----------------------------------------------------------------|
A|-----------------------------------------------------------------|
E|-1-1-1-1-1-1-1-1-1-1-1-1-1-1-1-1-5-5-5-5-5-5-5-5-5-5-5-5-5-5-5-5-|
                                                                          x 2
G|-----------------------------------------------------------------|
D|-----------------------------------------------------------------|
A|-3-3-3-3-3-3-3-3-3-3-3-3-3-3-3-3/8-8-8-8-8-8-8-8-8-8-8-8-8-8-8-8-|
E|-----------------------------------------------------------------|

G|-----------------------------------------------------------------|
D|-----------------------------------------------------------------|
A|-----------------------------------------------------------------|
E|-1-1-1-1-1-1-1-1-1-1-1-1-1-1-1-1-5-5-5-5-5-5-5-5-5-5-5-5-5-5-5-5-|
                                                                          
G|-----------------------------------------------------------------|
D|-----------------------------------------------------------------|
A|-3-3-3-3-3-3-3-3-3-3-3-3-3-3-3-3/8-8-8-8-8-8-8-8-8-8-8-8---------|
E|-----------------------------------------------------------0-0-0-|

Chorus III
G|-----------------------------------------------------------------|
D|-----------------------------------------------------------------|
A|-----------------------------------------------------------2-2-2-|
E|-0-0-0-1--1-1-1-1-1-1-1-1-1-1-3-3-3-5--5-5-5-5-5-5-5-5-5-5-------|

G|-----------------------------------------------------|
D|-----------------------------------------------------|
A|-3--3-3-3-3-3-3-3-3-3-3------------------------------|
E|------------------------3-3-3-1--1-1-1-1-1-1-1-1-1-1-|

G|-----------------------------------------------------------------|
D|-----------------------------------------------------------------|
A|-----------------------------------------------------------2-2-2-|
E|-0-0-0-1--1-1-1-1-1-1-1-1-1-1-3-3-3-5--5-5-5-5-5-5-5-5-5-5-------|

G|-----------------------------------------------------------------|
D|-----------------------------------------------------------------|
A|-3--3-3-3-3-3-3-3-3-3-3------------------------------------------|
E|------------------------3-3-3-1--1-1-1-1-1-1-1-1-1-1/13-13-13-13-|

G|-----------------------------------------------------------------------------------------|
D|-----------------------------------------------------------------------------------------|
A|--------------------------------------------------------------------------------14-14-14-|
E|-13-13-13-13-13-13-13-13-13-13-13-13-15-15-15-17--17-17-17-17-17-17-17-17-17-17----------|

G|------------------------------------------------------------------------|
D|------------------------------------------------------------------------|
A|-15-15-14-14-------15-15-14-14------------------------------------------|
E|-------------15-15-------------12-12-3-3-3-1--1-1-1-1-1-1-1-1-1-1-0-0-0-|

G|-----------------------------------------------------------------|
D|-----------------------------------------------------------------|
A|-----------------------------------------------------------2-2-2-|
E|-0-0-0-1--1-1-1-1-1-1-1-1-1-1-3-3-3-5--5-5-5-5-5-5-5-5-5-5-------|

G|-------------------------------------------------------------|
D|-------------------------------------------------------------|
A|-3--3-3-3-3-3-3-3-3-3-3--------------------------------------|
E|------------------------3-3-3-1--1-1-1-1-1-1-1-1-1-1-1-1-1-1-|

Outro (muted strumming)

happy playing!
************************************

| x   Dead note
| g   Grace note
| (n) Ghost note
| h   Hammer-on
| p   Pull-off
| r   Release
| >   Accented note
| t   Tapping
| b   Bend
| br  Bend release
| pb  Pre-bend
| pbr Pre-bend release
| /   Slide up
| \   Slide down
| ~   Vibrato
| s   Slap
| P   Pop
| PM  Palm mute
| TR  Trill
| N   Tremolo

************************************
Suggest correction
Give kudos to tab author, rate the tab!
1 2 3 4 5
comments
print report bad tab
guest
You may want to rate the tab now too:
select rating
Wanna post a correction for this tab? Suggest correction