Oops, an error
Loading. Please wait.

Miami solo tab

version 1
version 1

Solo

Whole song

Interactive

2,378 views 6 this week
3 commentsread comments
1 2 3 4 5
1 last vote to show rating
add to favorites
×
Save as Personal and add changes to this tab that will be seen only by you. Learn more ›
×
You can save this tab as Personal to edit and correct it or add notes. All changes will be seen only by you. Learn more »
launch autoscroll
font size
0
reset
how to read this tab
guitar tuner
edit
Autoscroll
slow
fast
+/-
esc
set tempo
stop
Author
Difficulty
This is the solo as far as i can tell, i used standard tuning with it but just translate 
into whatever tuning you think they use.

KEY
b = bend
br = bend/release
p = pull off
h = hammer on
s = slide

i think fred plays this cos hes pro, he seems t be using distortion and chorus although 
are some flanger sounds in there too
----------------------------------------------|
----------------------------------------------|
-9p7---7h9p7----9p7----7h9p7----9p7----9p7----|
----10-------10-----10--------10----10-----10-|
----------------------------------------------|
----------------------------------------------|

--------------------------8------------8-------|
--------8--8----------8b-----8br---8b------8br-|
-9--10--------10--9----------------------------|
-----------------------------------------------|
-----------------------------------------------|
-----------------------------------------------|

-----------------------------------|
-6h8p6--5h6p5----------------------|
---------------7s9s7--5s7s5--4s5s4-|
-----------------------------------|
-----------------------------------|
-----------------------------------|

------------------------------------|
------------------------------------|
-4h5p4p2-4h5p4p2-4h5p4p2-4h5p4---2b-|(slowly increase bend n hold for awhile)
-------------------------------5----|
------------------------------------|
------------------------------------|

ok i think its something like that any problems email me at mrmonkey_666@hotmail.com and 
dont mind you using my tab in a full version of miami just give me credit for it, hope 
find this useful

            
            
Suggest correction
Creating personal tab
Creating personal tab
You can edit any tab online and save it as your Personal.

You can edit, replace or remove any tab part or add personal notes – all changes will be seen only by you.

Personal tabs can be accessed anytime from any device, even offline.
Learn more »
Give kudos to tab author, rate the tab!
1 2 3 4 5
comments
print report bad tab
3 comments total.
0 reply
mistaman 295 May 08, 2006 01:49 PM

good start, but theres definetely some parts missing.

0 reply
SaintJimmy105 341 May 08, 2006 02:39 PM

Yeah, there are definately more than 3 or 4 notes in each of those fast little pull offs. It is a pretty good start to it though. I'd say worth a 4 star. Good job.

0 reply
BurtBobain 16 May 09, 2006 02:29 PM

thanks, yeah i heard more notes but i couldn't quite tell what they were so i thought id just put the bass of what hes playing

guest
You may want to rate the tab now too:
select rating
Wanna post a correction for this tab? Suggest correction