Oops, an error
Loading. Please wait.

My Blue Heaven bass

version 1
version 1

Whole song

Interactive

2,693 views 1 this week
2 commentsread comments
1 2 3 4 5
x 5
add to favorites
×
Save as Personal and add changes to this tab that will be seen only by you. Learn more ›
×
You can save this tab as Personal to edit and correct it or add notes. All changes will be seen only by you. Learn more »
launch autoscroll
font size
0
reset
guitar tuner
edit
Autoscroll
slow
fast
+/-
esc
set tempo
stop
Author
Difficulty
AWESOME SONG!

Intro
|Rest--------------------|
|----Twelve--------------|
|-----------Measures-----|
|-------------------Then-|

|-----------------------------------------------------------------|
|-----------------------------------------------------------------|
|--222222224444444455555555--------222222224444444455555555-------|
|--------------------------33333333------------------------333----|

Chorus (1's NOT 11's)
|------------------------------------------------------------------------------------|
|729;------------------------------------------------------------------8729----------|
|8729;-555-55-55-55-555444-44-44-44-444222-22-22-22-222111-11-11-11-111-8729---------|
|------------------------------------------------------------------------------------|

Bridge *NOTE* You dont really HAVE to play the chords, it sounds better.
|-----------------------------------------------|
|---------------------4~-4-6--7~-7--------------|
|-2~-2-4~-4-5~-5------2~-2-4~-5~-5-7-9~---------|
|---------------5-7~---------------5-7~---------|

Verse 2
|----------------------------------|------------------------------------------|
|8729;--------------------------------8729;|----------------------------------|
|8729;-222222224444444455555555-------8729;|22--44--2222222244444444----------|
|-------------------------33333333-|------------------------333333333333-3-3--|

Chorus 2 (1's NOT 11's)
|------------------------------------------------------------------------------------|
|8729;------------------------------------------------------------------8729---------|
|8729;-555-55-55-55-555444-44-44-44-444222-22-22-22-222111-11-11-11-111-8729---------|
|------------------------------------------------------------------------------------|

Second Bridge
|-----------------------------------------------------------------|
|-----------------------------------------------------------------|
|------------------------------------------------|-Palm-Mute------|
|555555555555555544444444444444443333333333333333|3333333333333333

Interlude
|------Then-----------------------------------------------------------|
|----------Rest-------------------------------------------------------|
|5~~~----------Fifteen------------------------------------------------|
|---------------------Measures----------------------------------------|

Final Chorus (Part 1 lol) (1's NOT 11's)
|-------------------------------------|
|-------------------------------------|
|55555555555555554444444444444444333333333333333322222222222222221111111111111111
|-------------------------------------

Final Chorus (part 2 lol I wasnt sure if it fits or not, first tab)
|--------------------------------------------------------------------------------------|
|8729;--------------------------------------------------------------------8729---------|
|8729;-555-55-55-55-555444-44-44-44-444222-22-22-22-222111-11-11-11-111---8729---------|
|--------------------------------------------------------------------------------------|

Outro (1's NOT 11's)
|----------------------------------------------------------|
|----------------------------------------------------------|
|22222222222222221111111111111111~~~~~~~~------------------|
|----------------------------------------------------------|

Listen to the song and yeh, this sounds exactly right to me.
~ = ring for 1/2 measure (2 beats)
Oh, and the little |8729; things means to repeat what is inside of them. (for people
dont know.)

Lyrics? Ok.

Two sides twist and then collide;
You're calling off the guards (Am I coming?)
I'm coming through. (Am I coming?)
Adulterous conditioned to a spin cycled submission,
You know, sometimes it just feels better to give in.
(Sometimes, it just feels better to give in.)

And it's all too familiar
And it happens all the time.
All the cards begin to stack up,
Twisting heartache into fine
Little pieces that avoid an awful crime,
But it's you I can't deny.
(You I can't deny.)

Dull heat rises from the sheets.
I'm both a patient boy,
Well, and a jealous man. (Am I coming?)
My double standardized suspicion
Is remedied, oh, my blue heaven,
Sometimes, it just feels better to give in.
(Sometimes, it just feels better to give in.)

And it's all too familiar
And it happens all the time.
All the cards begin to stack up,
Twisting heartache into fine
Little pieces that avoid an awful crime,
But it's you I can't deny.
(You I can't deny.)

We swing and we sway
As this tiny voice in
My head starts to sing
You're safe, child, you are safe.
(You're safe, child, you are safe.)
You're safe, child, you are safe.

We swing and we sway
As this tiny voice in
My head starts to sing
You're safe, child, you are safe.
You're safe, child, you are ..

safe (safe), safe (safe),
You are safe.

We swing and we sway
As this tiny voice in
My head starts to sing
You're safe, child, you are safe. (Am I coming?)
You're safe, child, you are safe. (Am I --)
Coming through?

Is this all too familiar?
Does it happen all the time?
I'm just asking you to hear me.
Could you please, just once, just hear me?
More then anything you wanted to be right.
Still it's you, you, it's you I can't deny.
(You I can't deny.)
It's you I can't deny.


First tab [: let me know how I did lol

and P.S. You're welcome Chelsea lol [:

            
            
Suggest correction
Creating personal tab
Creating personal tab
You can edit any tab online and save it as your Personal.

You can edit, replace or remove any tab part or add personal notes – all changes will be seen only by you.

Personal tabs can be accessed anytime from any device, even offline.
Learn more »
comments
print report bad tab
2 comments total.
+1 reply
TkingBckSunday 31 Dec 19, 2007 04:03 PM

Sorry about the 8 thing I thought it would come out like the little dot thingy but I guess not so just disregard it
people before you be all whiney about it.

0 reply
Bass_Beast 31 Feb 03, 2008 12:21 PM

thanks a bunch!
:D
Its a little messed up spacing wise in like the second verse and all
(look at the e string and a string at the 3 part)
but I understood it :) 4*'s

guest
You may want to rate the tab now too:
select rating
Wanna post a correction for this tab? Suggest correction