Oops, an error
Loading. Please wait.

New American Classic tab

version 4
version 4

Interactive

7,673 views 6 this week
19 commentsread comments
1 2 3 4 5
x 28
add to favorites
×
Save as Personal and add changes to this tab that will be seen only by you. Learn more ›
×
You can save this tab as Personal to edit and correct it or add notes. All changes will be seen only by you. Learn more »
launch autoscroll
font size
0
reset
how to read this tab
guitar tuner
edit
Autoscroll
slow
fast
+/-
esc
set tempo
stop
Taking Back Sunday - New American Classic
Tabbed by Drew Maletta 
Tuning - DGDGBd 

intro/verse riff: "you've got to get better..." 
d|------------------------------------0-------| 
B|---0------3--------7-----0--5p0-------------| 
G|-------------0--------0----------5----------| 
D|------0h4-------0---------------------------| 
G|---0---------------7--------5---------------| 
D|--------------------------------------------| 

chorus: "just ask the question..." 
d|--0---x-x---x-------x-------| 
B|--3---5/7---7(h8)---7(h8)---| 
G|--0---0-0---0-------7-------| 
D|--0---5/7---x-------0-------| 
G|--0---5/7---9-------0-------| 
D|--5---------x-------x-------| 

Chorus2: "and there's one thing..." 
d|---x---x---x---x---| 
B|---7---3---3---5---| 
G|---0---0---0---0---| 
D|---x---0---0---0---| 
G|---9---4---5---7---| 
D|-------------------| 

verse 
chorus 
chorus2(x3)

bridge: instrumental (this isn't completely accurate, you can play around with it.) 
d|---0----------------------------------------------------------------| 
B|---3----5--3--5--7\3--3--0h3p0--5--0h3p0--0h3p0--5--5h7p5\3h5p--3---| 
G|---0----0--0--0--0----0--0------0--0------0------0--0-----------0---| 
D|---0----0--0--0-------0--0------0--0------0------0--------------0---| 
G|---0----0--0--0-------0--0------0--0------0------0--------------0---| 
D|---x----------------------------------------------------------------| 

bridge(continued):
d|-------------------------------|--5-5/7/5-5-5---5---| 
B|-------3------3------3-----3---|--3-3/5/3-3-3p0h3---| 
G|-----0------0------0-----0-----|--------------------| 
D|---4------4------4-----4-------|--------------------| 
G|----------5------0-----0-------|--------------------| 
D|---0---------------------------|--------------------| 

bridge(continued):
d|--5---5p4-4-4----5/7/9—-10p9-10-10-10p9-9---|--10p9-9--|------12--| 
B|--3---3---3-3----3/5/8--8----8--8--8----8---|--8----8--|--7/8-----| 
G|--------------4-----------------------------|----------|----------| 
D|--------------------------------------------|---(8x)---|---(8x)---| 
G|--------------------------------------------|----------|----------| 
D|--------------------------------------------|----------|----------| 

chorus 
chorus2 (x3)

outro (same as intro, except for the last time [below]) 
d|------------------------------------0-----------------------<12>--| 
B|---0------3--------7-----0--5p0-----------0--------------<12>-----| 
G|-------------0--------0----------5-----5--------------<12>--------| 
D|------0h4-------0----------------------------------<12>-----------| 
G|---0---------------7--------5-------------------<12>--------------| 
D|---------------------------------------------<12>-----------------|
                                            (Harmonics...let'em ring.)

            
            
Suggest correction
Creating personal tab
Creating personal tab
You can edit any tab online and save it as your Personal.

You can edit, replace or remove any tab part or add personal notes – all changes will be seen only by you.

Personal tabs can be accessed anytime from any device, even offline.
Learn more »
comments
print report bad tab
19 comments total. Showing first comments.
0 reply
Blasphemy10 63 Feb 23, 2005 07:00 PM

i wasn't sure but i think in the 1st chorus the b-string notes may all be open strings...either ways sound like it could be it...tell me what you think.

0 reply
GuitarSmurf 10 Feb 23, 2005 07:00 PM

Nice try, but you're a little off on most of it.

0 reply
PAsistem 195 Feb 24, 2005 07:00 PM

hmm. ill take your word for it

guest
You may want to rate the tab now too:
select rating
Wanna post a correction for this tab? Suggest correction