Oops, an error
Loading. Please wait.

Number Five With A Bullet tab

version 2
version 2

Whole song

Interactive

6,781 views 1 this week
5 commentsread comments
1 2 3 4 5
x 6
add to favorites
×
Save as Personal and add changes to this tab that will be seen only by you. Learn more ›
×
You can save this tab as Personal to edit and correct it or add notes. All changes will be seen only by you. Learn more »
launch autoscroll
font size
0
reset
how to read this tab
guitar tuner
edit
Autoscroll
slow
fast
+/-
esc
set tempo
stop
Author
Difficulty
Tabbed By: HPracing1029
Email: HPracing1029@gmail.com

I found a tab on this song that was
really wrong. I took the time and tabbed this. E-mail me
if you have any suggestions...

The song is tuned to dropped D
      D A D G B E

                 -Intro-
E|-----------------------------------------------------------------|
B|-----------------------------------------------------------------|
G|-----------------------------------------------------------------|
D|-7777777777777777666666666666666600000000000000000000000000000000| x2
A|-7777777777777777666666666666666600000000000000000000000000000000|
D|-7777777777777777666666666666666600000000000000000000000000000000|
           -Verse 1, Both Guitars-
E|----------------------------------------------------------------|
B|----------------------------------------------------------------|
G|22222222--------77777777--------22222222--------77777777--------|
D|2222222244444444777777777777777722222222444444447777777777777777
A|4444444444444444555555557777777744444444444444445555555577777777
D|--------44444444--------77777777--------44444444--------77777777
           -Verse 1, Both Guitars continued-
E|----------------|
B|----------------|
G|7777777799999999|
D|7777777799999999|
A|5555555577777777|
D|----------------|
                 -Chorus, Guitar 1-
E|----------------------------------------------------------------|
B|----------------------------------------------------------------|
G|----------------------------------------------------------------|
D|-----------------------------------9-7-6-7--------9-7-6-7-------| x2
A|-----------------------------------x-x-x-x--------x-x-x-x-------|
D|-----------------------------------7-5-4-5--------7-5-4-5-------|
                 -Chorus, Guitar 2-
E|----------------------------------------------------------------|
B|----------------------------------------------------------------|
G|----------------------------------------------------------------|
D|7777777777777777666666666666666600000000000000000000000000000000| x2
A|7777777777777777666666666666666600000000000000000000000000000000|
D|7777777777777777666666666666666600000000000000000000000000000000|

                  -Verse 2, Guitar 1-
E|------------------------------------------------------------|
B|------------------------------------------------------------|
G|14-14-14-14-14-14-14\13-14\13-14-14-14-14-14-14-14\13-14\13-|
D|xx-xx-xx-xx-xx-xx-xx-xx-xx-xx-xx-xx-xx-xx-xx-xx-xx-xx-xx-xx-|
A|12-12-12-12-12-12-12\11-12\11-12-12-12-12-12-12-12\11-12\11-|
D|------------------------------------------------------------|
                  -Verse 2, Guitar 1 continued-
E|------------------------------------------------------|
B|------------------------------------------------------|
G|14-14-14-14-14-14-14\13-14\13-14-14-14-14-14-14-14-14-|
D|xx-xx-xx-xx-xx-xx-xx-xx-xx-xx-xx-xx-xx-xx-xx-xx-xx-xx-|
A|12-12-12-12-12-12-12\11-12\11-12-12-12-12-12-12-12-12-|
D|------------------------------------------------------|
                  -Verse 2, Guitar 1 continued-
E|------------------------------------------------------------------------|
B|------------------------------------------------------------------------|
G|16-16-16-16-16-16-16-16-18-18-18-18-18-18-18-18-19-19-19-19-19-19-19-19-|
D|xx-xx-xx-xx-xx-xx-xx-xx-xx-xx-xx-xx-xx-xx-xx-xx-xx-xx-xx-xx-xx-xx-xx-xx-|
A|14-14-14-14-14-14-14-14-16-16-16-16-16-16-16-16-17-17-17-17-17-17-17-17-|
D|------------------------------------------------------------------------|
                  -Verse 2, Guitar 1 continued-
E|---|
B|---|
G|21r|
D|xx-|
A|19r|
D|---|
                  -Verse 2, Guitar 2-
E|----------------------------------------------------------------|
B|----------------------------------------------------------------|
G|22222222--------77777777--------22222222--------77777777--------|
D|2222222244444444777777777777777722222222444444447777777777777777
A|4444444444444444555555557777777744444444444444445555555577777777
D|--------44444444--------77777777--------44444444--------77777777
                  -Verse 2, Guitar 2 continued-
E|----------------------------------------------------------------|
B|----------------------------------------------------------------|
G|22222222--------77777777--------22222222--------7777777799999999|
D|2222222244444444777777777777777722222222444444447777777799999999|
A|4444444444444444555555557777777744444444444444445555555577777777|
D|--------44444444--------77777777--------44444444----------------|
                  -Chorus 2, Guitar 1-
E|----------------------------------------------------------------|
B|----------------------------------------------------------------|
G|----------------------------------9-7-6-7---------9-7-6-7-------|
D|----------------------------------x-x-x-x---------x-x-x-x-------| x2
A|----------------------------------7-5-4-5---------7-5-4-5-------|
D|----------------------------------------------------------------|
                  -Chorus 2, Guitar 2-
E|----------------------------------------------------------------|
B|----------------------------------------------------------------|
G|----------------------------------------------------------------|
D|7777777777777777666666666666666600000000000000000000000000000000| x2
A|7777777777777777666666666666666600000000000000000000000000000000|
D|7777777777777777666666666666666600000000000000000000000000000000|
                  -Bridge, Guitar 1-
E|-4-5-4-4-5-4--4-5-4-4-5-4--4-5-4-4-5-4--4-5-4-4-5-4--5-4---5-4--|
B|5-5-5-5------5-5-5-5------5-5-5-5------5-5-5-5----------5-----5-|
G|----------------------------------------------------------------|
D|----------------------------------------------------------------|
A|----------------------------------------------------------------|
D|----------------------------------------------------------------|
                  -Bridge, Guitar 1 continued-
E|2-0------0---5-4--5-4---2-0--------|
B|----------------5----5-----2--1-2--|
G|---2--1-2-2-----------------------4|
D|----------------------------------4|
A|----------------------------------2|
D|-----------------------------------|
                  -Bridge, Guitar 2-
E|-----0-----0---------------------------------------------------|
B|---------------------2---2-------------------------------------|
G|1\2-1-1\2-1-1-2---1----1---1--44444444--------77777777---------|
D|-----------------2--2-2-2-2---44444444444040447777777777777777-|
A|------------------------------22222222444040445555555577777777-|
D|--------------------------------------44404044--------77777777-|
                  -Bridge, Guitar 2-
E|--------------------------------|
B|--------------------------------|
G|44444444--------9999999999999999|
D|44444444444040449999999999999999|
A|22222222444040447777777766666666|
D|--------44404044----------------|
                  -Mini-Verse Before Last Chorus-
E|-----------------------------------------------------------------|
B|-----------------------------------------------------------------|
G|-----------------------------------------------------------------|
D|777777777777777766666666666666660000000000000000000000000000000-0|
A|777777777777777766666666666666660000000000000000000000000000000-0|
D|777777777777777766666666666666660000000000000000000000000000000-0|
                  -Last Chorus, Guitar 1-
E|-------------------------------------------------------|
B|-------------------------------------------------------|
G|---------------------------------9-7-6-7-------9-7-6-7-|
D|---------------------------------x-x-x-x-------x-x-x-x-| x2, then play
A|---------------------------------7-5-4-5-------7-5-4-5-|
D|-------------------------------------------------------|
                  -Last Chorus, Guitar 1 continued-
E|-----------------------4-4-4--4-4-4|
B|-----------------------x-x-x--x-x-x|
G|9999-7777-6666-7777-x5-7-7-7--7-7-7|
D|xxxx-xxxx-xxxx-xxxx----x-x-x--x-x-x|
A|7777-5555-4444-5555----5-5-5--5-5-5|
D|-----------------------------------|
                  -Last Chorus, Guitar 2-
E|----------------------------------------------------------------|
B|----------------------------------------------------------------|
G|----------------------------------------------------------------|
D|7777777777777777666666666666666600000000000000000000000000000000 x2
A|7777777777777777666666666666666600000000000000000000000000000000
D|7777777777777777666666666666666600000000000000000000000000000000

E|----------------------------------------------------------------|
B|----------------------------------------------------------------|
G|----------------------------------------------------------------|
D|7777777777777777666666666666666655555555555555550000000000000000 x2
A|7777777777777777666666666666666655555555555555550000000000000000
D|7777777777777777666666666666666655555555555555550000000000000000

E|-------------------|
B|-------------------|
G|-------------------|            THE END...
D|0-0-0-0000000-0-0-0|
A|0-0-0-0000000-0-0-0|
D|0-0-0-0000000-0-0-0|

            
            
Suggest correction
Creating personal tab
Creating personal tab
You can edit any tab online and save it as your Personal.

You can edit, replace or remove any tab part or add personal notes – all changes will be seen only by you.

Personal tabs can be accessed anytime from any device, even offline.
Learn more »
comments
print report bad tab
5 comments total. Showing first comments.
0 reply
SaintJimmy105 341 Dec 05, 2005 12:00 AM

Awesome job man. 5 star work.

0 reply
NKHero07 10 Sep 25, 2006 02:01 PM

i think the intro sounds better like this in standard
5 4 2
5x8 5 x8 2X 16 or what ever it is
3 2 0

0 reply
NKHero07 10 Sep 25, 2006 02:05 PM

i mean raise it up a step cuz i forgot its posted higher up

guest
You may want to rate the tab now too:
select rating
Wanna post a correction for this tab? Suggest correction