Oops, an error
Loading. Please wait.

Set Phasers To Stun tab

version 2
version 2

Whole song

Interactive

5,885 views 9 this week
2 commentsread comments
1 2 3 4 5
x 10
add to favorites
×
Save as Personal and add changes to this tab that will be seen only by you. Learn more ›
×
You can save this tab as Personal to edit and correct it or add notes. All changes will be seen only by you. Learn more »
launch autoscroll
font size
0
reset
how to read this tab
guitar tuner
edit
Autoscroll
slow
fast
+/-
esc
set tempo
stop
Author
1. Set Phasers To Stun______________________________________________________


Tuning:
Guitars 1&2 Standard


INTRO
Guitar 2
E|-----------------------------------|
B|-5-5-5-5-5-5-5-5-4-4-4-4-4-4-4-4-4-|
G|-6-6-6-6-6-6-6-6-4-4-4-4-4-4-4-4-4-|
D|-----------------------------------|
A|-----------------------------------|2x
E|-----------------------------------|


VERSE
Guitar 1
E|-----------------------------------|
B|-----4~~~0~~~~~~----4~~~0~~~~~~~~~~|
G|-----------------------------------|
D|-----------------------------------|
A|-4~~~~~~~~~~~~~~2~~~~~~~~~~~~~~~~~~|2x
E|-----------------------------------|
 |
 |
Guitar 2
E|-----------------------------------|
B|-5-5-5-5-5-5-5-5-4-4-4-4-4-4-4-4-4-|
G|-6-6-6-6-6-6-6-6-4-4-4-4-4-4-4-4-4-|
D|-----------------------------------|
A|-----------------------------------|2x
E|-----------------------------------|


Guitar 1
E|-----------------------------------|
B|----4440-4440044----4440-4440044---|
G|-----------------------------------|
D|-----------------------------------|
A|-444-------------222---------------|3x
E|-----------------------------------|
  pm...... ....... ....... .......
 |
 |
Guitar 2
E|-----------------------------------|
B|-5-5-5-5-5-5-5-5-4-4-4-4-4-4-4-4-4-|
G|-6-6-6-6-6-6-6-6-4-4-4-4-4-4-4-4-4-|
D|-----------------------------------|
A|-----------------------------------|3x
E|-----------------------------------|


Guitar 1
E|-----------------------------------|
B|----4440-4440044----4440-4440044---|
G|-----------------------------------|
D|-----------------------------------|
A|-444-------------222---------------|1x
E|-----------------------------------|
  pm...... ....... ....... 
 |
 |
Guitar 2
E|-----------------------------------|
B|-5-5-5-5-5-5-5-5-4-4-4-4-4-4-4-4-4-|
G|-6-6-6-6-6-6-6-6-4-4-4-4-4-4-4-4-4-|
D|-----------------------------------|
A|-----------------------------------|1x
E|-----------------------------------|


     CHORUS
     Guitar 1
     E|-----0~~~~~~~~~0~~~~~~~~~0~~~~~~~~~0~~~~~|
     B|-------0~~~~~~~~~0~~~~~~~~~0~~~~~~~~~0~~~|
     G|-----------------------------------------|
     D|-----------------------------------------|
     A|-0~~~~~~~~~2~~~~~~~~~4~~~~~~~~~7~~~~~~~~~|2x
     E|-----------------------------------------|
      |
      |
     Guitar 2
     E|-----------------------------------------|
     B|----------------------------4~5~~~~~~~~~~|
     G|-----------------------------------------|
     D|-----------------------------------------|
     A|-----------------------------------------|2x
     E|-----------------------------------------|


VERSE
Guitar 1
E|-----------------------------------|
B|-----4~~~0~~~~~~----4~~~0~~~~~~~~~~|
G|-----------------------------------|
D|-----------------------------------|
A|-4~~~~~~~~~~~~~~2~~~~~~~~~~~~~~~~~~|2x
E|-----------------------------------|
 |
 |
Guitar 2
E|-----------------------------------|
B|-5-5-5-5-5-5-5-5-4-4-4-4-4-4-4-4-4-|
G|-6-6-6-6-6-6-6-6-4-4-4-4-4-4-4-4-4-|
D|-----------------------------------|
A|-----------------------------------|2x
E|-----------------------------------|


Guitar 1
E|-----------------------------------|
B|----4440-4440044----4440-4440044---|
G|-----------------------------------|
D|-----------------------------------|
A|-444-------------222---------------|3x
E|-----------------------------------|
  pm...... ....... ....... .......
 |
 |
Guitar 2
E|-----------------------------------|
B|-5-5-5-5-5-5-5-5-4-4-4-4-4-4-4-4-4-|
G|-6-6-6-6-6-6-6-6-4-4-4-4-4-4-4-4-4-|
D|-----------------------------------|
A|-----------------------------------|3x
E|-----------------------------------|


Guitar 1
E|-----------------------------------|
B|----4440-4440044----4440-4440044---|
G|-----------------------------------|
D|-----------------------------------|
A|-444-------------222---------------|1x
E|-----------------------------------|
  pm...... ....... ....... 
 |
 |
Guitar 2
E|-----------------------------------|
B|-5-5-5-5-5-5-5-5-4-4-4-4-4-4-4-4-4-|
G|-6-6-6-6-6-6-6-6-4-4-4-4-4-4-4-4-4-|
D|-----------------------------------|
A|-----------------------------------|1x
E|-----------------------------------|

     
     CHORUS
     Guitar 1
     E|-----0~~~~~~~~~0~~~~~~~~~0~~~~~~~~~0~~~~~|
     B|-------0~~~~~~~~~0~~~~~~~~~0~~~~~~~~~0~~~|
     G|-----------------------------------------|
     D|-----------------------------------------|
     A|-0~~~~~~~~~2~~~~~~~~~4~~~~~~~~~7~~~~~~~~~|3x
     E|-----------------------------------------|
      |
      |
     Guitar 2
     E|-----------------------------------------|
     B|----------------------------4~5~~~~~~~~~~|
     G|-----------------------------------------|
     D|-----------------------------------------|
     A|-----------------------------------------|3x
     E|-----------------------------------------|


     Guitar 1
     E|-----0~~~~~~~~~0~~~~~~~~~0~~~~~~~
     B|-------0~~~~~~~~~0~~~~~~~~~0~~~~~
     G|---------------------------------
     D|---------------------------------
     A|-0~~~~~~~~~2~~~~~~~~~4~~~~~~~~~~-fade
     E|---------------------------------
      |
      |
     Guitar 2
     E|--------------------------------5b--15b--|
     B|------------------4~5~~~~~~~-2b----------|
     G|-----------------------------------------|
     D|-----------------------------------------|
     A|-----------------------------------------|1x
     E|-----------------------------------------|
                                            ph

BRIDGE
Guitar 1
E|-----7-----7-------------------|
B|-------------9b----9-----9-7---|
G|-6-9---6-9-----6-9---6-9-----9-|
D|-------------------------------|
A|-------------------------------|3x
E|-------------------------------|
 |
 |
Guitar 2
E|-------------------------------|
B|-----------------2-0-----2-0---|
G|---------------2-----2-4-----2-|
D|-------------------------------|
A|-------------------------------|3x
E|-------------------------------|


Guitar 1
E|-----7-----7-------------------|
B|-------------9b----9-----9-7---|
G|-6-9---6-9-----6-9---6-9-----9-|
D|-------------------------------|
A|-------------------------------|1x
E|-------------------------------|
 |
 |
Guitar 2
E|-------------------------------|
B|-------------------------------|
G|--------------2222222244444444-|
D|--------------2222222244444444-|
A|--------------0000000022222222-|1x
E|-------------------------------|


Guitar 1
E|-----7-----7-------------------|
B|-------------9b----9-----9-7---|
G|-6-9---6-9-----6-9---6-9-----9-|
D|-------------------------------|
A|-------------------------------|1x
E|-------------------------------|
 |
 |
Guitar 2
E|-------------------------------|
B|-------------------------------|
G|2222222244444442222222244444444|
D|2222222244444442222222244444444|
A|0000000022222220000000022222222|1x
E|-------------------------------|


Guitar 1
E|-----7-----7-------------------|
B|-------------9b----9-----9-7---|
G|-6-9---6-9-----6-9---6-9-----9-|
D|-------------------------------|
A|-------------------------------|1x
E|-------------------------------|
 |
 |
Guitar 2
E|-------------------------------|
B|-------------------------------|
G|66666666-------2222222244444444|
D|6666666699999992222222244444444|
A|4444444466666660000000022222222|1x
E|-------------------------------|


Guitar 1
E|-----7-----7-------------------|
B|-------------9b----9-----9-7---|
G|-6-9---6-9-----6-9---6-9-----9-|
D|-------------------------------|
A|-------------------------------|1x
E|-------------------------------|
 |
 |
Guitar 2
E|-------------------------------|
B|-------------------------------|
G|2222222244444442222222244444444|
D|2222222244444442222222244444444|
A|0000000022222220000000022222222|1x
E|-------------------------------|


Guitar 1
E|-----7-----7----|
B|-------------9b-|
G|-6-9---6-9------|
D|----------------|
A|----------------|1x
E|----------------|
 |
 |
Guitar 2
E|----------------|
B|----------------|
G|66666666--------|
D|666666669999999-|
A|444444446666666-|1x
E|----------------|


OUTTRO
Guitar 1
E|-----7-----7-------------------|
B|-------------9b----------------|
G|-6-9---6-9-----6-9-8-----------|
D|---------------------9-7-6-4-2-|
A|-------------------------------|2x
E|-------------------------------|
 |
 |
Guitar 2
E|----------------------------------|
B|----------------------------------|
G|-66x66x66x66x6x6x66x66x66x66x6x6x-|
D|-66x66x66x66x6x6x66x66x66x66x6x6x-|
A|-44x44x44x44x4x4x44x44x44x44x4x4x-|2x
E|-00x00x00x00x0x0x00x00x00x00x0x0x-|


Guitar 1
E|-----7-----7-------------------|
B|-------------9b----------------|
G|-6-9---6-9---------------------|
D|-------------------------------|
A|-------------------------------|1x
E|-------------------------------|
 |
 |
Guitar 2
E|-------------------------------|
B|-------------------------------|
G|-----------------6-6-6-6-6-6-6\|
D|-----------------6-6-6-6-6-6-6\|
A|-----------------4-4-4-4-4-4-4\|1x
E|-------------------------------|
Suggest correction
Creating personal tab
Creating personal tab
You can edit any tab online and save it as your Personal.

You can edit, replace or remove any tab part or add personal notes – all changes will be seen only by you.

Personal tabs can be accessed anytime from any device, even offline.
Learn more »
comments
print report bad tab
2 comments total.
0 reply
honkey 10 Apr 15, 2006 09:51 AM

Wow that looks way more accurate than the other I gave you a 5

0 reply
A7X_Fan_gp 823 Jul 04, 2016 01:22 PM

Pretty good confusing though... This part is wrong though

|9| should be [9]
|6| [7]

I don't think he is using the 3rd string on the power chords in the chorus either sounds better with the 2 string power chords.

guest
You may want to rate the tab now too:
select rating
Wanna post a correction for this tab? Suggest correction