Oops, an error
Loading. Please wait.

Sink Into Me tab

version 2
version 2

Whole song

18,789 views 3 this week
3 commentsread comments
1 2 3 4 5
x 5
add to favorites
×
Save as Personal and add changes to this tab that will be seen only by you. Learn more ›
×
You can save this tab as Personal to edit and correct it or add notes. All changes will be seen only by you. Learn more »
launch autoscroll
font size
0
reset
how to read this tab
guitar tuner
edit
Autoscroll
slow
fast
+/-
esc
set tempo
stop
-------------------------------------------------------------------------------
                             Sink Into Me – Taking Back Sunday
-------------------------------------------------------------------------------
Tabbed by:PT-E
Email:

Tuning: 1/2 Step down

 Intro
|---------------------------------------------------------------------------|
|---------------------------------------------------------------------------|
|---------------------------------------------------------------------------|
|---------------------------------------------------------------------------|
|-7-9-9--7-9-9--3-5-5--3-5-5--7-9-9--7-9-9--121414-3-5-5--------------------|
|-0-0-0--0-0-0--0-0-0--0-0-0--0-0-0--0-0-0--0-0-0--0-0-0--------------------|


 Verse
|---------------------------------------------------------------------------|
|-7-7-7-7-7-7-7-7-7-7-7-7-7-7-7-7-7-----------------------------------------|
|-7-7-7-7-7-7-7-7-7-7-7-7-7-7-7-7-7-5-5-5-5-5-5-5-5-5-5-5-5-5-5-5-5-5-5-5---|
|-7-7-7-7-7-7-7-7-7-7-7-7-7-7-7-7-7-7-7-7-7-7-7-7-7-7-7-7-7-7-7-7-7-7-7-7---|
|-5-5-5-5-5-5-5-5-5-5-5-5-5-5-5-5-5-7-7-7-7-7-7-7-7-7-7-7-7-7-7-7-7-7-7-7---|
|-----------------------------------7-7-7-7-7-7-7-7-7-7-7-7-7-7-7-7-7-7-7---|


|---------------------------------------------------------------------------|
|---------------------------------------------------------------------------|
|---------------------------------------------------------------------------|
|---------------------------------------------------------------------------|
|-7-9-9--7-9-9--3-5-5--3-5-5--7-9-9--7-9-9--121414-3-5-5--------------------|
|-0-0-0--0-0-0--0-0-0--0-0-0--0-0-0--0-0-0--0-0-0--0-0-0--------------------|

Pre-Chorus
 Guitar 1
|---------------------------------------------------------------------------|
|---------------------------------------------------------------------------|
|-17171717171717171717171717171717-7-7-7-7-7-7-7-7-7-7-7-7-7-7-7-7-7-7------|
|-xxxxxxxxxxxxxxxxxxxxxxxxxxxxxxxx-x-x-x-x-x-x-x-x-x-x-x-x-x-x-x-x-x-x------|
|-15151515151515151515151515151515-5-5-5-5-5-5-5-5-5-5-5-5-5-5-5-5-5-5------|
|---------------------------------------------------------------------------|

 Guitar 2
|---------------------------------------------------------------------------|
|---------------------------------------------------------------------------|
|---------------------------------------------------------------------------|
|-5-5-5-5-5-5-5-5-5-5-5-5-5-5-5-5-3-3-3-3-3-3-3-3-3-3-3-3-3-3-3-3-3-3-3-----|
|-5-5-5-5-5-5-5-5-5-5-5-5-5-5-5-5-3-3-3-3-3-3-3-3-3-3-3-3-3-3-3-3-3-3-3-----|
|-5-5-5-5-5-5-5-5-5-5-5-5-5-5-5-5-3-3-3-3-3-3-3-3-3-3-3-3-3-3-3-3-3-3-3-----|

Chorus
 Guitar 1
|---------------------------------------------------------------------------|
|---------------------------------------------------------------------------|
|-1111111111111-12121212121212-5-5-5-5-5-5----------------------------------|
|-xxxxxxxxxxxxx-xxxxxxxxxxxxxx-5-5-5-5-5-5-5-5-5-5-5-5-0-0-0-0-0-0-0-0-0-0-0|
|-9-9-9-9-9-9-9-10101010101010-3-3-3-3-3-3-5-5-5-5-5-5-0-0-0-0-0-0-0-0-0-0-0|
|------------------------------------------5-5-5-5-5-5-0-0-0-0-0-0-0-0-0-0-0|

 Guitar 2
|---------------------------------------------------------------------------|
|---------------------------------------------------------------------------|
|-------------------------------5-5-5-5-5-5---------------------------------|
|-0-0-0-0-0-0-0-0-0-0-0-0-0-0-0-5-5-5-5-5-5-5-5-5-5-5-5-0-0-0-0-0-0-0-0-0-0-|
|-0-0-0-0-0-0-0-0-0-0-0-0-0-0-0-3-3-3-3-3-3-5-5-5-5-5-5-0-0-0-0-0-0-0-0-0-0-|
|-0-0-0-0-0-0-0-0-0-0-0-0-0-0-0-------------5-5-5-5-5-5-0-0-0-0-0-0-0-0-0-0-|

 Guitar 1
|---------------------------------------------------------------------------|
|---------------------------------------------------------------------------|
|-141414141414-1616161616161616-171717171717-121212121212-191919191919191919|
|-xxxxxxxxxxxx-xxxxxxxxxxxxxxxx-xxxxxxxxxxxx-xxxxxxxxxxxx-xxxxxxxxxxxxxxxxxx|
|-121212121212-1414141414141414-151515151515-101010101010-171717171717171717|
|---------------------------------------------------------------------------|

 Guitar 2
|---------------------------------------------------------------------------|
|---------------------------------------------------------------------------|
|-------------------------------5-5-5-5-5-5---------------------------------|
|-0-0-0-0-0-0-0-0-0-0-0-0-0-0-0-5-5-5-5-5-5-5-5-5-5-5-5-0-0-0-0-0-0-0-0-0-0-|
|-0-0-0-0-0-0-0-0-0-0-0-0-0-0-0-3-3-3-3-3-3-5-5-5-5-5-5-0-0-0-0-0-0-0-0-0-0-|
|-0-0-0-0-0-0-0-0-0-0-0-0-0-0-0-------------5-5-5-5-5-5-0-0-0-0-0-0-0-0-0-0-|


 2x
|---------------------------------------------------------------------------|
|---------------------------------------------------------------------------|
|---------------------------------------------------------------------------|
|---------------------------------------------------------------------------|
|-7-9-9--7-9-9--3-5-5--3-5-5--7-9-9--7-9-9--121414-3-5-5--------------------|
|-0-0-0--0-0-0--0-0-0--0-0-0--0-0-0--0-0-0--0-0-0--0-0-0--------------------|

Pre-Chorus
 Guitar 1
|---------------------------------------------------------------------------|
|---------------------------------------------------------------------------|
|-17171717171717171717171717171717-7-7-7-7-7-7-7-7-7-7-7-7-7-7-7-7-7-7------|
|-xxxxxxxxxxxxxxxxxxxxxxxxxxxxxxxx-x-x-x-x-x-x-x-x-x-x-x-x-x-x-x-x-x-x------|
|-15151515151515151515151515151515-5-5-5-5-5-5-5-5-5-5-5-5-5-5-5-5-5-5------|
|---------------------------------------------------------------------------|

 Guitar 2
|---------------------------------------------------------------------------|
|---------------------------------------------------------------------------|
|---------------------------------------------------------------------------|
|-5-5-5-5-5-5-5-5-5-5-5-5-5-5-5-5-3-3-3-3-3-3-3-3-3-3-3-3-3-3-3-3-3-3-3-----|
|-5-5-5-5-5-5-5-5-5-5-5-5-5-5-5-5-3-3-3-3-3-3-3-3-3-3-3-3-3-3-3-3-3-3-3-----|
|-5-5-5-5-5-5-5-5-5-5-5-5-5-5-5-5-3-3-3-3-3-3-3-3-3-3-3-3-3-3-3-3-3-3-3-----|

Chorus
 Guitar 1
|---------------------------------------------------------------------------|
|---------------------------------------------------------------------------|
|-1111111111111-12121212121212-5-5-5-5-5-5----------------------------------|
|-xxxxxxxxxxxxx-xxxxxxxxxxxxxx-5-5-5-5-5-5-5-5-5-5-5-5-0-0-0-0-0-0-0-0-0-0-0|
|-9-9-9-9-9-9-9-10101010101010-3-3-3-3-3-3-5-5-5-5-5-5-0-0-0-0-0-0-0-0-0-0-0|
|------------------------------------------5-5-5-5-5-5-0-0-0-0-0-0-0-0-0-0-0|

 Guitar 2
|---------------------------------------------------------------------------|
|---------------------------------------------------------------------------|
|-------------------------------5-5-5-5-5-5---------------------------------|
|-0-0-0-0-0-0-0-0-0-0-0-0-0-0-0-5-5-5-5-5-5-5-5-5-5-5-5-0-0-0-0-0-0-0-0-0-0-|
|-0-0-0-0-0-0-0-0-0-0-0-0-0-0-0-3-3-3-3-3-3-5-5-5-5-5-5-0-0-0-0-0-0-0-0-0-0-|
|-0-0-0-0-0-0-0-0-0-0-0-0-0-0-0-------------5-5-5-5-5-5-0-0-0-0-0-0-0-0-0-0-|

 Guitar 1
|---------------------------------------------------------------------------|
|---------------------------------------------------------------------------|
|-141414141414-1616161616161616-171717171717-121212121212-191919191919191919|
|-xxxxxxxxxxxx-xxxxxxxxxxxxxxxx-xxxxxxxxxxxx-xxxxxxxxxxxx-xxxxxxxxxxxxxxxxxx|
|-121212121212-1414141414141414-151515151515-101010101010-171717171717171717|
|---------------------------------------------------------------------------|

 Guitar 2
|---------------------------------------------------------------------------|
|---------------------------------------------------------------------------|
|-------------------------------5-5-5-5-5-5---------------------------------|
|-0-0-0-0-0-0-0-0-0-0-0-0-0-0-0-5-5-5-5-5-5-5-5-5-5-5-5-0-0-0-0-0-0-0-0-0-0-|
|-0-0-0-0-0-0-0-0-0-0-0-0-0-0-0-3-3-3-3-3-3-5-5-5-5-5-5-0-0-0-0-0-0-0-0-0-0-|
|-0-0-0-0-0-0-0-0-0-0-0-0-0-0-0-------------5-5-5-5-5-5-0-0-0-0-0-0-0-0-0-0-|



|---------------------------------------------------------------------------|
|---------------------------------------------------------------------------|
|-5--5--5--5--5--5--5--5--5--5--5-------------------------------------------|
|-5--5--5--5--5--5--5--5--5--5--5-------------------------------------------|
|-3--3--3--3--3--3--3--3--3--3--3-------------------------------------------|
|---------------------------------0-0-0-0-0-0-0-0-0-0-0-0-0-0-0-0-0-0-0-0-0-|
                                  x x x x x x x x x x x x x x x x x x x x x
|---------------------------------------------------------------------------|
|---------------------------------------------------------------------------|
|---------------------------------------------------------------------------|
|---------------------------------------------------------------------------|
|---------------------------------------------------------------------------|
|-0-0-0-0-0-0-0-0-0-0-0-0-0-0-0-0-0-0-0-0-0-0-0-0-0-0-0-0-0-0-0-0-0-0-0-0---|
  x x x x x x x x x x x x x x x x x x x x x x x x x x x x x x x x x x x x


2x
|---------------------------------------------------------------------------|
|---------------------------------------------------------------------------|
|---------------------------------------------------------------------------|
|---------------------------------------------------------------------------|
|-7-9-9--7-9-9--3-5-5--3-5-5--7-9-9--7-9-9--121414-3-5-5--------------------|
|-0-0-0--0-0-0--0-0-0--0-0-0--0-0-0--0-0-0--0-0-0--0-0-0--------------------|


Pre-Chorus
 Guitar 1
|---------------------------------------------------------------------------|
|---------------------------------------------------------------------------|
|-17171717171717171717171717171717-7-7-7-7-7-7-7-7-7-7-7-7-7-7-7-7-7-7------|
|-xxxxxxxxxxxxxxxxxxxxxxxxxxxxxxxx-x-x-x-x-x-x-x-x-x-x-x-x-x-x-x-x-x-x------|
|-15151515151515151515151515151515-5-5-5-5-5-5-5-5-5-5-5-5-5-5-5-5-5-5------|
|---------------------------------------------------------------------------|

 Guitar 2
|---------------------------------------------------------------------------|
|---------------------------------------------------------------------------|
|---------------------------------------------------------------------------|
|-5-5-5-5-5-5-5-5-5-5-5-5-5-5-5-5-3-3-3-3-3-3-3-3-3-3-3-3-3-3-3-3-3-3-3-----|
|-5-5-5-5-5-5-5-5-5-5-5-5-5-5-5-5-3-3-3-3-3-3-3-3-3-3-3-3-3-3-3-3-3-3-3-----|
|-5-5-5-5-5-5-5-5-5-5-5-5-5-5-5-5-3-3-3-3-3-3-3-3-3-3-3-3-3-3-3-3-3-3-3-----|

Chorus
 Guitar 1
|---------------------------------------------------------------------------|
|---------------------------------------------------------------------------|
|-1111111111111-12121212121212-5-5-5-5-5-5----------------------------------|
|-xxxxxxxxxxxxx-xxxxxxxxxxxxxx-5-5-5-5-5-5-5-5-5-5-5-5-0-0-0-0-0-0-0-0-0-0-0|
|-9-9-9-9-9-9-9-10101010101010-3-3-3-3-3-3-5-5-5-5-5-5-0-0-0-0-0-0-0-0-0-0-0|
|------------------------------------------5-5-5-5-5-5-0-0-0-0-0-0-0-0-0-0-0|

 Guitar 2
|---------------------------------------------------------------------------|
|---------------------------------------------------------------------------|
|-------------------------------5-5-5-5-5-5---------------------------------|
|-0-0-0-0-0-0-0-0-0-0-0-0-0-0-0-5-5-5-5-5-5-5-5-5-5-5-5-0-0-0-0-0-0-0-0-0-0-|
|-0-0-0-0-0-0-0-0-0-0-0-0-0-0-0-3-3-3-3-3-3-5-5-5-5-5-5-0-0-0-0-0-0-0-0-0-0-|
|-0-0-0-0-0-0-0-0-0-0-0-0-0-0-0-------------5-5-5-5-5-5-0-0-0-0-0-0-0-0-0-0-|

 Guitar 1
|---------------------------------------------------------------------------|
|---------------------------------------------------------------------------|
|-141414141414-1616161616161616-171717171717-121212121212-191919191919191919|
|-xxxxxxxxxxxx-xxxxxxxxxxxxxxxx-xxxxxxxxxxxx-xxxxxxxxxxxx-xxxxxxxxxxxxxxxxxx|
|-121212121212-1414141414141414-151515151515-101010101010-171717171717171717|
|---------------------------------------------------------------------------|

 Guitar 2
|---------------------------------------------------------------------------|
|---------------------------------------------------------------------------|
|-------------------------------5-5-5-5-5-5---------------------------------|
|-0-0-0-0-0-0-0-0-0-0-0-0-0-0-0-5-5-5-5-5-5-5-5-5-5-5-5-0-0-0-0-0-0-0-0-0-0-|
|-0-0-0-0-0-0-0-0-0-0-0-0-0-0-0-3-3-3-3-3-3-5-5-5-5-5-5-0-0-0-0-0-0-0-0-0-0-|
|-0-0-0-0-0-0-0-0-0-0-0-0-0-0-0-------------5-5-5-5-5-5-0-0-0-0-0-0-0-0-0-0-|


|---------------------------------------------------------------------------|
|-3--3--3--3--3--3--5--5--5--5--5-5-5---------------------------------------|
|-5--5--5--5--5--5--5--5--5--5--5-5-5---------------------------------------|
|-5--5--5--5--5--5--5--5--5--5--5-5-5---------------------------------------|
|-3--3--3--3--3--3--3--3--3--3--3-3-3---------------------------------------|
|---------------------------------------------------------------------------|


| /  slide up
| \  slide down
| h  hammer-on
| p  pull-off
| ~  vibrato
| +  harmonic
| x  Mute note
===============================================================================
Suggest correction
Creating personal tab
Creating personal tab
You can edit any tab online and save it as your Personal.

You can edit, replace or remove any tab part or add personal notes – all changes will be seen only by you.

Personal tabs can be accessed anytime from any device, even offline.
Learn more »
comments
print report bad tab
3 comments total.
+1 reply
stark 41 Jul 12, 2009 04:48 PM

Drop C#... low E is 1 1/2 step down

+1 reply
MatB 50 Aug 24, 2009 12:33 PM

that intro doesnt sound right Intro
|-------------------------------------------------------------------|
|-------------------------------------------------------------------|
|-------------------------------------------------------------------|
|-7-7--7-7---3-3---3-3---7-7---7-7---12-12----3-3-------------------|
|-7-9--7-9---3-5---3-5---7-9---7-9---12-14----3-5-------------------|
|-------------------------------------------------------------------|
that i believe sounds better

0 reply
Geeeeezer 173 Apr 16, 2010 01:42 PM

MatB, that really doesnt sound better :/

What tuning did you have guitar in to tab that?

The original tab sounds perfect. Maybe you aren't in the dropped tuning?

guest
You may want to rate the tab now too:
select rating
Wanna post a correction for this tab? Suggest correction