Oops, an error
Loading. Please wait.

Slowdance On The Inside bass

version 1
version 1

Whole song

Interactive

1,594 views 1 this week
1 commentread comment
1 2 3 4 5
2 more votes to show rating
add to favorites
×
Save as Personal and add changes to this tab that will be seen only by you. Learn more ›
×
You can save this tab as Personal to edit and correct it or add notes. All changes will be seen only by you. Learn more »
launch autoscroll
font size
0
reset
guitar tuner
edit
Autoscroll
slow
fast
+/-
esc
set tempo
stop
Band: Taking Back Sunday
Title: ...Slowdance on the Inside
Album: Where You want To Be
Tabber: Dylan Young (deeyup83@yahoo.com)

This tab is very, very close to being 100% 
accurate and sounds really well.  Enjoy.


Drop the E to a D for this song

Intro:

	(0:10)
G|---------------------------------------------------------|
D|---------------------------------------------------------|
A|--2---2-2----2---2-2-------------------------------------|
D|------------------------5---5-5----5---5-5---------------|

Verse 1:

	(0:19)
G|---------------------------------------------------------|
D|---------------------------------------------------------|
A|--5---5-5----5---5-5-------------------------------------|
D|------------------------5---5-5----5---5-5---------------|
							      2x
G|---------------------------------------------------------|
D|---------------------------------------------------------|
A|--2---2-2----2---2-2-------------------------------------|
D|------------------------5---5-5----5---5-5---------------|

	(0:51)

G|---------------------------------------------------------|
D|---------------------------------------------------------|
A|---------------------------------------------------------|
D|--0-0---0-0-0----000000000000-0-0------------------------|

Chorus 1:

	(0:59)
G|---------------------------------------------------------|
D|---------------------------------------------------------|
A|--55555555--5555555--------------------------------------|
D|-----------------------55555555--5555555-----------------|
							      2x
G|---------------------------------------------------------|
D|---------------------------------------------------------|
A|--22222222--2222222--------------------------------------|
D|-----------------------55555555--5555555-----------------|

Verse 2:
	
	(1:33)
G|---------------------------------------------------------|
D|---------------------------------------------------------|  
A|--2--------------------0---------------------------------|
D|---------------------------------------------------------|
							      2x
G|---------------------------------------------------------|
D|---------------------------------------------------------|  
A|--5------------------------------------------------------|
D|-----------------------5---------------------------------|

G|---------------------------------------------------------|
D|---------------------------------------------------------|  
A|--2------0h4-5-4-0-----0------0h4-5-4-0------------------|
D|---------------------------------------------------------|
							      2x
G|---------------------------------------------------------|
D|---------------------------------------------------------|  
A|--5--5--5h7h5--------------------------------------------|
D|-----------------------5------5--0-----------------------|



	(2:03)
G|---------------------------------------------------------|
D|---------------------------------------------------------|
A|---------------------------------------------------------|
D|--0-0---0-0-0----000000000000-0-0------------------------|

Chorus 2 & Outro:

	Basically play this until the end of the song.
	There are a few mutes, listen to hear them.

	(2:14)
G|---------------------------------------------------------|
D|---------------------------------------------------------|
A|--55555555--5555555--------------------------------------|
D|-----------------------55555555--5555555-----------------|
								
G|---------------------------------------------------------|
D|---------------------------------------------------------|
A|--22222222--2222222--------------------------------------|
D|-----------------------55555555--5555555-----------------|

Ending Note:

	(3:53)
G|---------------------------------------------------------|
D|---------------------------------------------------------|
A|--5------------------------------------------------------|
D|---------------------------------------------------------|




            
            
Suggest correction
Creating personal tab
Creating personal tab
You can edit any tab online and save it as your Personal.

You can edit, replace or remove any tab part or add personal notes – all changes will be seen only by you.

Personal tabs can be accessed anytime from any device, even offline.
Learn more »
Give kudos to tab author, rate the tab!
1 2 3 4 5
comments
print report bad tab
1 comment total.
0 reply
SaintJimmy105 341 May 15, 2007 09:04 PM

You've got the right idea, but the verses are a tad bit more intricate, and higher than you have tabbed. Still a good tab overall.

guest
You may want to rate the tab now too:
select rating
Wanna post a correction for this tab? Suggest correction