Oops, an error
Loading. Please wait.

Spin bass

version 1
version 1

Whole song

Interactive

3,675 views 3 this week
2 commentsread comments
1 2 3 4 5
x 5
add to favorites
×
Save as Personal and add changes to this tab that will be seen only by you. Learn more ›
×
You can save this tab as Personal to edit and correct it or add notes. All changes will be seen only by you. Learn more »
launch autoscroll
font size
0
reset
guitar tuner
edit
Autoscroll
slow
fast
+/-
esc
set tempo
stop
Author
Difficulty
*-Harmonic
~- let note ring
M- Mute Note (this will be under the numbers u Mute)

 alright so heres spin

Intro (play this softly)
Gb-
Db-
Ab-
Eb-00000000-22222222-33333333-55555555

Gb-
Db-
Ab-
Eb-00000000-22222222-33333333-88888888

Chorus
Gb-------------------------------------|
Db-------------------------------------|
Ab-------------------------------------|
Eb-00000000-22222222-33333333-55555555-|

Gb-------------------------------------|
Db-------------------------------------|
Ab-------------------------------------|
Eb-00000000-22222222-33333333-88888888-|

Verse
Gb--------------------------------|
Db---------------------4-4-4-4-44-|
Ab-------0-0-0~-3-3-3~------------|
Eb-0-0-0~-------------------------|
(next part a little different)
Gb--------------------------------------|
Db--------------------------------------|
Ab------0-0-0~-3-3-3~-555-5-555-5-55-55-|
Eb-0-0-0~-------------------------------|
                      M      M    M
Pre-Chorus
Gb---------------------------------|
Db---------------------------------|
Ab---------------------------------|
Eb-1111111111111111-0000000000000000
   (one's)
Gb-----------------------------------|
Db-----------------------------------|
Ab-----------------00000000-11111111-|
Eb-1111111111111111------------------|
  (one's)
Chrous
Gb-------------------------------------|
Db-------------------------------------|
Ab-------------------------------------|
Eb-00000000-22222222-33333333-88888888-|

Gb-------------------------------------|
Db-------------------------------------|
Ab-------------------------------------|
Eb-00000000-22222222-33333333-88888888-|

Gb-------------------------------------|
Db-------------------------------------|
Ab-------------------------------------|
Eb-00000000-22222222-33333333-88888888-|

Gb-------------------------------------|
Db-------------------------------------|
Ab-------------------------------------|
Eb-00000000-22222222-----8(x32)--------|

Verse
Gb--------------------------------|
Db---------------------4-4-4-4-44-|
Ab-------0-0-0~-3-3-3~------------|
Eb-0-0-0~-------------------------|

Gb--------------------------------------|
Db--------------------------------------|
Ab------0-0-0~-3-3-3~-555-5-555-5-55-55-|
Eb-0-0-0~-------------------------------|
                      M     M    M
Pre-Chorus
Gb---------------------------------|
Db---------------------------------|
Ab---------------------------------|
Eb-1111111111111111-0000000000000000
  (one's)
Gb-----------------------------------|
Db-----------------------------------|
Ab-----------------00000000-11111111-|
Eb-1111111111111111------------------|
  (one's)
Chrous
Gb-------------------------------------|
Db-------------------------------------|
Ab-------------------------------------|
Eb-00000000-22222222-33333333-88888888-|

Gb-------------------------------------|
Db-------------------------------------|
Ab-------------------------------------|
Eb-00000000-22222222-33333333-88888888-|

Gb-------------------------------------|
Db-------------------------------------|
Ab-------------------------------------|
Eb-00000000-22222222-33333333-88888888-|

Gb-------------------------------------|
Db-------------------------------------|
Ab-------------------------------------|
Eb-00000000-22222222-33333333-88888888-|

pre-chorus again but slitley different
Gb---------------------------------|
Db---------------------------------|
Ab---------------------------------|
Eb-1111111111111111-0000000000000000
   (one's)
Gb----------------------------------|
Db----------------------------------|
Ab------------------0-0-0-0-0-0-----|
Eb-1111111111111111--0-0-0-0-0------|
   (one's)
Bridge
Gb-----------------|
Db-----------------|
Ab--77~---33~------|
Eb-----------------|

Gb-------------5*---|
Db------------------|
Ab--77~---33~-------|
Eb------------------|

Gb-----------------|
Db-----------------|
Ab--77~---33~------|
Eb-----------------|

Gb-----------------|
Db-----------------|
Ab--77~---33~--2---|
Eb----------------3|

Gb--------------------------|
Db--------------------------|
Ab--77~---------------------|  X4
Eb------22~--33~-88~--------|
   (starts to build up)

Chrous
Gb-------------------------------------|
Db-------------------------------------|
Ab-------------------------------------|
Eb-00000000-22222222-33333333-88888888-|

Gb-------------------------------------|
Db-------------------------------------|
Ab-------------------------------------|
Eb-00000000-22222222-33333333-88888888-|

Gb-------------------------------------|
Db-------------------------------------|
Ab-------------------------------------|
Eb-00000000-22222222-33333333-88888888-|

Gb-------------------------------------|
Db-------------------------------------|
Ab-------------------------------------|
Eb-00000000-22222222-33333333-88888888-|

Outro
Gb-----------------------------------------|
Db-----------------------------------------|
Ab-----------------------------------------|
Eb-0-00-0-00-2-22-2-22-3-33-3-33-8-88-8-88-|

Gb----------------------------------------|
Db----------------------------------------|
Ab----------------------------------------|
Eb-0-00-0-00-2-22-2-22---8(x32)-----------|

Ab-0-0----|
Eb--0-----|

 there's spin for you guys.. there might be 1 or 2 shakey parts but it sound good

            
            
Suggest correction
Creating personal tab
Creating personal tab
You can edit any tab online and save it as your Personal.

You can edit, replace or remove any tab part or add personal notes – all changes will be seen only by you.

Personal tabs can be accessed anytime from any device, even offline.
Learn more »
comments
print report bad tab
2 comments total.
0 reply
unerdanielson 52 Dec 04, 2006 09:34 AM

I rated this 4 because, of one thing I think the tuning is in flats EbAbDbGb apart from that the tab seems practically perfect

0 reply
M0nk3yb01 30 Sep 16, 2008 07:15 PM

isnt taking back sunday, tuned half step down?

guest
You may want to rate the tab now too:
select rating
Wanna post a correction for this tab? Suggest correction