Oops, an error
Loading. Please wait.

Summer Man bass

version 1
version 1

Whole song

1,259 views 3 this week
1 commentread comment
1 2 3 4 5
1 last vote to show rating
add to favorites
×
Save as Personal and add changes to this tab that will be seen only by you. Learn more ›
×
You can save this tab as Personal to edit and correct it or add notes. All changes will be seen only by you. Learn more »
launch autoscroll
font size
0
reset
guitar tuner
edit
Autoscroll
slow
fast
+/-
esc
set tempo
stop
-------------------------------------------------------------------------------
			     SUMMER, MAN - Taking Back Sunday
-------------------------------------------------------------------------------

first tab i've done in awhile. :)

Tabbed By: Valerie L
e-mail: queefist@yahoo.com
Tuning: standard

Intro 
G|----------------------|
D|----------------------|
A|-444------------------|
E|-----4444-1111-0-1111-| x4

Verse "I play dead immersed.."
G|-666-1111------33333--666-1111----------|666-1111------333333-666-1111---------|
D|----------3333-----------------333333333|---------3333-----------------33331333|
A|----------------------------------------|--------------------------------------|
E|----------------------------------------|--------------------------------------|

pre-chorus "i crack open the safe myself, now"
G|-------------------|   |--------------|
D|-------------------|   |--------------|
A|-4-----------------|   |--------------|
E|---4--1--011111111-|x3 |2~-------4444-|

chorus "the summer is over, and I doubt."
G|------------------11111111-333-111-1h3------------------------------------|
D|---------11133333----------------------11111111-33333333-444444444444-4-4-|
A|44444444------------------------------------------------------------------|
E|--------------------------------------------------------------------------|

verse "i ain't working for you anymore"
G|----------------|   
D|----------------|   
A|-4--------------|   
E|---41-011111111-|x4

pre-chorus "let's have a talk about the good times."
G|------------------------------------------------------------------------|
D|------------------------------------------------------------------------|
A|11111111----------------------------11111111----------------------------|
E|---------44444444-11111111-22222222----------44444444-11111111-2222-4444|

chorus "the summer is over, and I doubt."
G|------------------11111111-333-111-1h3--------------------------------1111-|
D|---------11133333----------------------11111111-33333333-444444444444------|
A|44444444-------------------------------------------------------------------|
E|---------------------------------------------------------------------------|

G|------------------11111111-333-111-1h3-------------------------6--------6------|
D|---------11133333----------------------11111111-33333333-4h6p4--6-4h6p4---4h6p4|
A|44444444-----------------------------------------------------------------------|
E|-------------------------------------------------------------------------------|

bridge right after chorus
G|------------------------------------|
D|------6~---3~---------6~---3~--333--|
A|-4~--------------4~-----------------|
E|------------------------------------|

G|-5h6p5~---666-1111------33333--666-1111----------|
D|-------------------3333-----------------3333333--|
A|-------------------------------------------------|
E|-------------------------------------------------|

"let's have a talk about the good times.."
G|--------------------|    |-----------------------------------------|
D|--------------33333-|    |-----------------------3~--4~--11111111-1|
A|----------444-------|    |--------------------4~-------------------|
E|-22222222-----------|x3  |-2222222222222222------------------------|

chorus "the summer is over, and I doubt."
G|------------------11111111-333-111-1h3--------------------------------1111-|
D|---------11133333----------------------11111111-33333333-444444444444------|
A|44444444-------------------------------------------------------------------|
E|---------------------------------------------------------------------------|

G|------------------11111111-333-111-1h3-------------------------6--------6------|
D|---------11133333----------------------11111111-33333333-4h6p4--6-4h6p4---4h6p4|
A|44444444-----------------------------------------------------------------------|
E|-------------------------------------------------------------------------------|

outro chorus
G|----------------------11111111-333-111-1h3---------------------|
D|--------1----1---3-------------------------11111111-33333333-4~|
A|4-4-4-4--4-4---4---4-------------------------------------------|
E|---------------------------------------------------------------|



            
            
Suggest correction
Creating personal tab
Creating personal tab
You can edit any tab online and save it as your Personal.

You can edit, replace or remove any tab part or add personal notes – all changes will be seen only by you.

Personal tabs can be accessed anytime from any device, even offline.
Learn more »
Give kudos to tab author, rate the tab!
1 2 3 4 5
comments
print report bad tab
1 comment total.
0 reply
thisisnoise1 10 Jun 13, 2009 09:37 AM

This song is tuned drop D then half a step down.

guest
You may want to rate the tab now too:
select rating
Wanna post a correction for this tab? Suggest correction