Oops, an error
Loading. Please wait.

Summer Stars tab

version 2
version 2

Whole song

Interactive

1,366 views 1 this week
3 commentsread comments
1 2 3 4 5
x 3
add to favorites
×
Save as Personal and add changes to this tab that will be seen only by you. Learn more ›
×
You can save this tab as Personal to edit and correct it or add notes. All changes will be seen only by you. Learn more »
launch autoscroll
font size
0
reset
how to read this tab
guitar tuner
edit
Autoscroll
slow
fast
+/-
esc
set tempo
stop
tabbed by misery for joy}
Really really simple song.

Intro/Verse (Light Distortion/Clean)
e----------------------------------|
B--3/5/3---1--1---3--3-3-3-3-------|
G--x/x/x---x--x---x--x-x-x-x-(12x)-|
D--5/7/5---3--3---5--5-5-5-5-------|
A----------------------------------|
E----------------------------------|

Chorus 1 (Heavy Distortion)
e---------------------------------------------------------------------------|
B---------------------------------------------------------------------------|
G---------------------------------------------------------------------------|
D--33-3-33-3-33-3-33-3-00-0-00-0-00-0-00-0-88-8-88-8-88-8-88-8-1010-10-1010-|
A--33-3-33-3-33-3-33-3-00-0-00-0-00-0-00-0-88-8-88-8-88-8-88-8-1010-10-1010-|
D--33-3-33-3-33-3-33-3-00-0-00-0-00-0-00-0-88-8-88-8-88-8-88-8-1010-10-1010-|

e-------------------------|
B-------------------------|
G-------------------------|
D--10-1010-10-1010-10-----|
A--10-1010-10-1010-10-----|
D--10-1010-10-1010-10-----|

Chorus 2
e-----------------------------------------------------|
B-----------------------------------------------------|
G-----------------------------------------------------|
D--3333333333333333-0000000000000000-8888888888888888-|
A--3333333333333333-0000000000000000-8888888888888888-|
D--3333333333333333-0000000000000000-8888888888888888-|

e----------------------------------|
B----------------------------------|
G----------------------------------|
D-10101010101010101010101010101010-|
A-10101010101010101010101010101010-|
D-10101010101010101010101010101010-|

Verse
e----------------------------------|
B--3/5/3---1--1---3--3-3-3-3-------|
G--x/x/x---x--x---x--x-x-x-x-(12x)-|
D--5/7/5---3--3---5--5-5-5-5-------|
A----------------------------------|
E----------------------------------|

Chorus 1
e---------------------------------------------------------------------------|
B---------------------------------------------------------------------------|
G---------------------------------------------------------------------------|
D--33-3-33-3-33-3-33-3-00-0-00-0-00-0-00-0-88-8-88-8-88-8-88-8-1010-10-1010-|
A--33-3-33-3-33-3-33-3-00-0-00-0-00-0-00-0-88-8-88-8-88-8-88-8-1010-10-1010-|
D--33-3-33-3-33-3-33-3-00-0-00-0-00-0-00-0-88-8-88-8-88-8-88-8-1010-10-1010-|

e-------------------------|
B-------------------------|
G-------------------------|
D--10-1010-10-1010-10-----|
A--10-1010-10-1010-10-----|
D--10-1010-10-1010-10-----|

Chorus 2
e-----------------------------------------------------|
B-----------------------------------------------------|
G-----------------------------------------------------|
D--3333333333333333-0000000000000000-8888888888888888-|
A--3333333333333333-0000000000000000-8888888888888888-|
D--3333333333333333-0000000000000000-8888888888888888-|

e----------------------------------|
B----------------------------------|
G----------------------------------|
D-10101010101010101010101010101010-|
A-10101010101010101010101010101010-|
D-10101010101010101010101010101010-|

Break (drums and bass play)
Then
(clean)
e-----------------------------------------------------|
B-----------------------------------------------------|
G-----------------------------------------------------|
D--3333333333333333-0000000000000000-8888888888888888-|
A--3333333333333333-0000000000000000-8888888888888888-|
D--3333333333333333-0000000000000000-8888888888888888-|
pm----------------------------------------------------|

e----------------------------------|
B----------------------------------|
G----------------------------------|
D-10101010101010101010101010101010-|
A-10101010101010101010101010101010-|
D-10101010101010101010101010101010-|
pm---------------------------------|

Chorus 1
e---------------------------------------------------------------------------|
B---------------------------------------------------------------------------|
G---------------------------------------------------------------------------|
D--33-3-33-3-33-3-33-3-00-0-00-0-00-0-00-0-88-8-88-8-88-8-88-8-1010-10-1010-|
A--33-3-33-3-33-3-33-3-00-0-00-0-00-0-00-0-88-8-88-8-88-8-88-8-1010-10-1010-|
D--33-3-33-3-33-3-33-3-00-0-00-0-00-0-00-0-88-8-88-8-88-8-88-8-1010-10-1010-|

e-------------------------|
B-------------------------|
G-------------------------|
D--10-1010-10-1010-10-----|
A--10-1010-10-1010-10-----|
D--10-1010-10-1010-10-----|

Chorus 2
e-----------------------------------------------------|
B-----------------------------------------------------|
G-----------------------------------------------------|
D--3333333333333333-0000000000000000-8888888888888888-|
A--3333333333333333-0000000000000000-8888888888888888-|
D--3333333333333333-0000000000000000-8888888888888888-|

e----------------------------------|
B----------------------------------|
G----------------------------------|
D-10101010101010101010101010101010-|
A-10101010101010101010101010101010-|
D-10101010101010101010101010101010-|
(You do that 2x)
Then there is a little random chords that I'm really just too lazy to tab, but a monkey
could pick them out.

            
            
Suggest correction
Creating personal tab
Creating personal tab
You can edit any tab online and save it as your Personal.

You can edit, replace or remove any tab part or add personal notes – all changes will be seen only by you.

Personal tabs can be accessed anytime from any device, even offline.
Learn more »
Give kudos to tab author, rate the tab!
1 2 3 4 5
comments
print report bad tab
3 comments total.
0 reply
miseryforjoy 31 Oct 08, 2005 05:56 PM

i think this is the best version of the song. the tabber must be a very grand guitarist... go you! and aaod rocked... !

0 reply
miseryforjoy 31 Oct 09, 2005 07:59 AM

brad stop going on my account and advertising our old band... god... its dead... get an account for yourself and advertise our new one... but thanks for the comment... as much bs as it was.

0 reply
screamo_core 435 Mar 24, 2014 03:47 PM

First of all, the intro/verse sounds completely wrong. Maybe it's a tunning issue since playing that 1 step down sounds somewhat right. The way I would play it:
e------------------------------|
B------------------------------|
G--5/7/5=--3-3--33/5-5---------|
D--X-X-X---X-X--XX-X-X---------|
A--3/5/3---1-1--11/3-3---------|
E------------------------------|

As far as the chorus/break, the last chord sounds bad. This is how it sounds better:Chorus 1
e---------------------------------------------|
B---------------------------------------------|
G-------------------------------(5)(5)(5)-----|
D--333333333-000000000-888888888-22222222-----|
A--333333333-000000000-888888888-33333333-----|
D--333333333-000000000-888888888-22222222-----|

(5) In this case means that you can add it for a more aesthetic sound. And it's also a bunch of 5's but I got lazy

guest
You may want to rate the tab now too:
select rating
Wanna post a correction for this tab? Suggest correction