Oops, an error
Loading. Please wait.

Tell All Your Friends album bass

3,533 views 1 this week
1 commentread comment
1 2 3 4 5
x 3
add to favorites
×
Save as Personal and add changes to this tab that will be seen only by you. Learn more ›
×
You can save this tab as Personal to edit and correct it or add notes. All changes will be seen only by you. Learn more »
launch autoscroll
font size
0
reset
guitar tuner
edit
Autoscroll
slow
fast
+/-
esc
set tempo
stop
Taking Back Sunday

Tell All Your Friends

[this is my second 'copy and paste' tab, i thought it would be a good idea to have this 
album all in one place. thank you for your work =D]

1.You Know How I Do [tabbed by Mikhailo]
2.Bike Scene [tabbed by Mikhailo]
3.Cute Is Without The 'E' [Cut From The Team][tabbed by ?]
4.There's No 'I' In Team [tabbed by Paris_In_Flames]
5.Great Romances Of The 20th Century [tabbed by Mikhailo]
6.Ghost Man On Third [tabbed by omertoscar]
7.Timberwolves At New Jersey [tabbed by mikhailo]
8.The Blue Channel [tabbed by ?]
9.You're So Last Summber [tabbed by this-hmong-dood]
10.Head Club [tabbed by ?]
-------------------------------------------------


1.You Know How I Do [Mikhailo]

Intro & verse x2: [Start After Guitar Riff x2]

G|----------------------------------------------------------|
D|----------------------------------------------------------|
A|-2~------222222222222222222222222-------------------------|
E|---------------------------------000000000000000000000000-|

Chorus [x2]:
G|--------------------------------------------------|
D|--------------------------------------------------|
A|-222222222222222222222222-------------------------|
E|-------------------------000000000000000000000000-|

Verse [x2]

Breakdown:
G|--------------------------|
D|--------------------------|
A|-2-2-2-2-22-0-0-0-0-00----|
E|----------------------0---|

Bass Solo & Outro [x7]
G|-----------------------------------------------------------------|
D|-----------------------------------------------------------------|
A|--------------000000000000-22-44444444-22222222-2400000000-0-----|
E|--000000000000----------------------------------------------2----|
* on the 7th time playing, the tempo changes.
____________________________________________________________________

2.Bike Scene [Mikehailo]

Intro/Verse
G|----------------------------------------------------------------|
D|----------------------------------------------------------------|
A|33333-333333-3333/-----------------33333-33333/-----------------|
E|------------------55555-33333-11111------------55555-33333-11111|

Chorus
G|---------------------------------|
D|---------------------------------|
A|3333-5555-777787-----------------|
E|-----------------5555-3333-111111|

Bridge
G|-------------------------------------------|
D|-------------------------------------------|
A|8-88-8-88-8-88-8-88-5-55-5-55-5-55-5-55(2x)|
E|-------------------------------------------|

G|---------------------------------------|
D|---------------------------------------|
A|3-33-3-33-3-33-3-33-5-55-5-55-5-55-5-55|
E|---------------------------------------|

G|-------------------------------------------|
D|-------------------------------------------|
A|8-88-8-88-8-88-8-88-5-55-5-55-5-55-5-55(2x)|
E|-------------------------------------------|

Ending
G|-------------------------------------------|
D|-------------------------------------------|
A|8-88-8-88-8-88-8-88-5-55-5-55-5-55-5-55(2x)|
E|-------------------------------------------|

G|-----------------------------|
D|-----------------------------|
A|33333~33333~33333~33333~33333|
E|-----------------------------|

Order:
Intro/Verse 2x
Chorus 2x
Intro/Verse 2x
Chorus 2x
(Break with no bass)
Bridge
Chorus
Ending
____________________________________________________________

3.Cute Without The 'E' [Cut From The Team][Unregisterd]

Verse
G----------------------------------|
D----------------------------------|
A-4444444400000000--------66666666-|
E-----------------77777777---------|

Chorus
G---------------------------------|
D-----------------2-2-2-2---------|
A-4-4-4-4-2-2-2-2---------0-0-0-0-|
E---------------------------------|

Little Bass Solo Thing
G--------------------------------|
D-----------------222442---------|
A-444-4-4-222-2-2--------000-0-0-|
E--------------------------------|
________________________________________________________

4.Theres No 'I' In Team [Paris_In_Flames]

Intro/Verse:
G-------------------------------------------------------------------|
D------4--------------------4---2----22h4p2-------5-------5---------|
A--222---4h5--5h7----00--0---00----------------5------5-------------|
D--------------------------------------------55-----55--5-----5-7---|
Chorus:
G-------------------------------------------------------------------|
D-------------------------------------------------------------------|
A---22222222--4h5---00000000--4h5-----------------------------------|
D----------------------------------------------5555555555555555-----|

Bridge/Breakdown

G-----------------------------------------------------------------------|
D-----------------------------------------------------------------------|
A-----------------------------------------------------------------------|
D---------555555555555555555555555555 alot.. etc..----------------------|


End on:
G----------|
D----------|
A-2~--2----|
D----------|

Order:
Intro/Verse x4
Chorus x2
Intro/Verse x4
Chorus x2
Breakdown
chorus x4
___________________________________________________

5.Great Romances Of The 20th Century [Mikhailo]

* - let ring
> - strum

intro (with guitar)
G|-------------------------------------|
D|-------------------------------------|
A|-2*------2---------------------------|
E|----------0*------2*------2-4---0*---|

intro (when drums come in) (listen for rhythm)
G|-----------------------------------|------------------------------------|
D-----4-2-1-2----2-4*---4-6--2---242--|------4-2-1-2----2-4*---4-6--2-----|
A|-2*--------------------------------|--2*--------------------------------|
E|---------------------------------------|--------------------------------|

1st verse (September never stays this cold...)
G|------------------------|
D|------------------------|
A|-------------2>---------|
E|--4>---0>----------2>---|

2nd Verse (This won't mean a thing come tomorrow...)
G|------|--------------------------|
D|------|--------------------------|
A|--2---|------------2>-------2----|
E|---2--|--4>---0>--------2>---2---|

3rd Verse (i guess?) "She said, c'mon c'mon..."
G|-----------------------------------------------------------|
D|-----------------------------------------------------------|
A|-----------------------------------------------------------|
E|--44--22--00--00--44--22--00--00---4>-2>-0>>---4>-2>-0>>---|

next part
G|--------------|
D|--------------|
A|--------------|
E|--4>-2>-0>>---|

Breakdown (?)
G|-----------------| -------------------------------|
D|---2*------------| --2*-----------1-2*------------|
A|-----------2*----| ---------2*--24--------2*------|
E|-----------------| -------------------------------|

"I never said I'd take this lying down..."
G|---------------------------|
D|---------------------------|
A|---------------------------|
E|--444-222-444-222--42-0>>--|

next part ("Then whats the point?...)
G|-----------|
D|-----------|
A|-----------|
E|--0*---0*--|

Outro (?) ("I'm in your room...)
G|--------------------------|
D|--------------------------|
A|--------------------------|
E|---4>------2>-------0>>---|

Last part
G|----------------------------|
D|----------------------------|
A|----------------------------|
E|--444-222-444-222--42--0*---|
__________________________________________________

6.Ghost Man On Third [omertoscar]

Verses:
G|----------------------------------------------|
D|-------------9-------------7-------5--5--5----|
A|-3---6h777-7---7-7h9-5-555---5h7-3--33-3--3---|
E|--0-------------------------------------------|

 pre-chorus "everything..."
G|--------------------------|
D|--------------------------|
A|-3333333333333333---------|
E|--------------------------|

 chorus"Its a campaign.."
G|-------------------------------------------|
D|----7-----7------9-----9-------------------|
A|-55--5-55---5-77--7-77--7-33333333333333---|
E|-------------------------------------------|

  Then:
  Verse
  Chorus

 Bridge "Dont let me down"
G|---------------------------------------------------------|
D|-------------------9--9----7--7----5--5----7--7----------|
A|-7~--------------77-77-7-55-55-5-33-33-3-55-55-555555----|
E|-0~------------------------------------------------------|

 Outro: "This is what living like this does"
G|------------------------------------------------------|
D|------------------------------------------------------|
A|-777777777777-555555555555-333333333333-555555555555--|
E|------------------------------------------------------|
____________________________________________________________

7.Timberwolves In New Jersey [Mikhailo]

Intro/Verse (x4)
G|--------------------------------------------------------------------------|
D|--------------------------------------------------------------------------|
A|--88-88-88-88-8-8---1010-1010-1010-1010-10-10---1212-1212-1212-1212-12-12-|
E|--------------------------------------------------------------------------|

Verse cont.
G|-------------------------------------------------------------------------|
D|-------------------------------------------------------------------------|
A|--1010-1010-1010-1010-10-10----------------------------------------------|
E|-------------------------------------------------------------------------|

Chorus (x2)
G|------------------------------------------------------------------------|
D|------------------------------------------------------------------------|
A|--00000000---33333333---------------------------------------------------|
E|----------------------33333333---00000~---------------------------------|

Verse(x4)

Chorus(x2)

Bridge(x10)
G|-------------------------------------------------------------------------|
D|-------------------------------------------------------------------------|
A|--0~-----------------3~--------------------------------------------------|
E|--------------------------------------3~-----------------1~--------------|

next(x4)
G|-------------------------------------------------------------------------|
D|-------------------------------------------------------------------------|
A|--0>-----------------3>--------------------------------------------------|
E|--------------------------------------3>-----------------1>--------------|

Verse(x2)
____________________________________________________________

8.The Blue Channel [unregesterd]


HALF STEP TUNING Gb,Db,Ab,Eb
intro(piano plays for 8 messures)


verse(play twice)
|---------------------------------------------------------------------|
|---------------------------------------------------------------------|
|-5555555555555555-3333333333333333-1111111111111111-0001110001110011-|
|---------------------------------------------------------------------|


chorus(play twice)
|-----------------------------------||-----------------------------------|
|-----------5----5------------------||-----------5----5------------------|
|-5~~~7~~~3---33---1111111111111111-||-5~~~7~~~3---33---0001110001110011-|
|-----------------------------------||-----------------------------------|


verse(play twice)
|---------------------------------------------------------------------|
|---------------------------------------------------------------------|
|-5555555555555555-3333333333333333-1111111111111111-0001110001110011-|
|---------------------------------------------------------------------|


chorus(play twice)
|-----------------------------------||-----------------------------------|
|-----------5----5------------------||-----------5----5------------------|
|-5~~~7~~~3---33---1111111111111111-||-5~~~7~~~3---33---0001110001110011-|
|-----------------------------------||-----------------------------------|


bridge(play three times)
|--------------------------------------------------------------------|
|--------------------------------------------------------------------|
|-555555-55555-555-77777-77777-55-77-88888-88888-888-11111-11111-111-|
|--------------------------------------------------------------------|


outro
|-----------------------------------------------------------------------|
|-----------------------------------------------------------------------|
|-5555555555555555-33333333333333333-8888888888888888-11111-11111-111-5~|
|-----------------------------------------------------------------------|
_____________________________________________________________________

9.You're So Last Summer [this-hmong-dood]

Verse 1
G|---------------------------------------|
D|-----------5----5-5p0------------------| x2
A|----4445555-5555-5----0----------------|
E|---------------------------------------|

G|-----------------------------332------------------|
D|--------2----2-2p0--------------32----------------|
A|----2222-2222-2-----------------------------------|
E|--------------------33333333----------------------|

Chorus
G|--------------------------|
D|--------------------------| x2
A|-5x16------2x16-----------|
E|------2x16------3x16------|

verse 2
G|---------------------------------------|
D|-----------5----5-5p0------------------| x2
A|----4445555-5555-5----0----------------|
E|---------------------------------------|

G|-----------------------------332------------------|
D|--------2----2-2p0--------------32----------------|
A|----2222-2222-2-----------------------------------|
E|--------------------33333333----------------------|

Chorus
G|--------------------------|
D|--------------------------| x2
A|-5x16------2x16-----------|
E|------2x16------3x16------|

Bridge [Play whole bridge twice through]
G|---------------------------|
D|-------------5----5-5p0----|
A|-444-000-5555-5555-5-------|
E|---------------------------|

G|----------------------------------|
D|----------------------------------|
A|-----------------22222-2-2-2-222--|
E|-33333-3-3-3-333------------------|

Breakdown
G|-----------------------------------------|
D|-------4-----------------0---------------| x3
A|-5-5555-5-------4--2-2222-2-------2------|
E|----------5-5555-5----------3-3333-3-----|

Outro
G|-------------------|
D|-------------------|play until end
A|-5~------2~--------|
E|-----5~------3~----|

end on
G|-------------------|
D|-------------------|
A|-5~----------------|
E|-------------------|
___________________________________________________

10.Head Club [unregisterd]

Intro 4x
|----------------|
|----------------|
|----2/3-3-3-3---|
|----------------|

Verse 4x
|------------------------------------------------------------------|
|------------------------------------------------------------------|
|--2-2-2-2-2-2-2-2---5-5-5-5-5-5-5-5--------2/3-3-3-3--2/3-3-3-3---|
|------------------------------------------------------------------|

Prechorus 1x
|--------------------|
|--------------------|
|--------------------|
|--0-0-0-0-0-0-0-0---|

Chorus pt.1 2x
|-------------------------------------|
|-------------------------------------|
|----------------3--------------------|
|-----0-----------------3------2------|

Chorus pt.2 2x
|------------------------------------|
|------------------------------------|
|----------3-3-3-3-------------------|
|--0-0-0-0---------3-3-3-3-2-2-2-2---|

Bridge 1x
|-----------------------------------------------------|
|-----------------------------------------------------|
|-------------------3-3-3-3-3-3-3-3-3-3-3-3-3-3-3-3---|
|---3~~~~/5/7-----------------------------------------|

Outro 4x
|------------------------------------------------------------------|
|------------------------------------------------------------------|
|----------------------------------3-3-3-3-3-3-3-3-3-3-3-3-3-3-3-3-|
|--3-3-3-3-3-3-3-3-0-0-0-0-0-0-0-0---------------------------------|

Ending 1x
|---------------------------|
|---------------------------|
|---------------------------|
|--3~---3~---3~---3~---3~---|

            
            
Suggest correction
Creating personal tab
Creating personal tab
You can edit any tab online and save it as your Personal.

You can edit, replace or remove any tab part or add personal notes – all changes will be seen only by you.

Personal tabs can be accessed anytime from any device, even offline.
Learn more »
Give kudos to tab author, rate the tab!
1 2 3 4 5
comments
print report bad tab
1 comment total.
+1 reply
sbd 10 Aug 17, 2008 08:14 PM

the tab is perfect because is including all songs of the album and have good rythms. one friend sbd

guest
You may want to rate the tab now too:
select rating
Wanna post a correction for this tab? Suggest correction