Oops, an error
Loading. Please wait.

The Blue Channel intro tab

version 2
version 2

Intro

Whole song

Interactive

581 views 1 this week
1 commentread comment
1 2 3 4 5
2 more votes to show rating
add to favorites
×
Save as Personal and add changes to this tab that will be seen only by you. Learn more ›
×
You can save this tab as Personal to edit and correct it or add notes. All changes will be seen only by you. Learn more »
launch autoscroll
font size
0
reset
how to read this tab
guitar tuner
edit
Autoscroll
slow
fast
+/-
esc
set tempo
stop
Author
Difficulty
intermediate
I'm pretty sure this is right, went through it quite painstakingly. I play this on piano 
haven't tried it out on guitar yet but i'm sure its possible and sounds great. Hope you 
it anyway - voila.

..(Dm)...............................(C).................................
E||--------0-----1-----0-----0---0---|----------------------------------|
B||------3-----3-----3-----3---3-----|--------5-----6-----5---3-------5-|
G||----2-----2-----2---------------2-|------5-----5-----5---5-----5-----|
D||--0-------------------0-----------|----5-----5---------------5---5---|
A||----------------------------------|--3-------------3-----------------|
E||----------------------------------|----------------------------------|

..(A#)...............................(A)............................
E||----------------------------------|---------------------------------||
B||--------3-----3---1-------5-----3-|--------2-------5-2--------------||
G||------3-----3---3-------3-----3---|------2-------2---------2--------||
D||----3-----------------3-----------|----2-------2--------------------||
A||--1-------1---------1-------1-----|--0-------0----------0-----------||
E||----------------------------------|---------------------------------||

            
            
Suggest correction
Creating personal tab
Creating personal tab
You can edit any tab online and save it as your Personal.

You can edit, replace or remove any tab part or add personal notes – all changes will be seen only by you.

Personal tabs can be accessed anytime from any device, even offline.
Learn more »
Give kudos to tab author, rate the tab!
1 2 3 4 5
comments
print report bad tab
1 comment total.
0 reply
Desantis 16 Jul 09, 2008 06:01 PM

holy shittens! this is awsome, THANK YOU!!!

guest
You may want to rate the tab now too:
select rating
Wanna post a correction for this tab? Suggest correction