Oops, an error
Loading. Please wait.

Theres No I In Team bass

version 1
version 1

Whole song

Interactive

1,876 views 3 this week
3 commentsread comments
1 2 3 4 5
1 last vote to show rating
add to favorites
×
Save as Personal and add changes to this tab that will be seen only by you. Learn more ›
×
You can save this tab as Personal to edit and correct it or add notes. All changes will be seen only by you. Learn more »
launch autoscroll
font size
0
reset
guitar tuner
edit
Autoscroll
slow
fast
+/-
esc
set tempo
stop
Taking Back Sunday-There's No In Team
Regular tuning
h=Hammer on
p=Pull off


Intro/Verse:
G-------------------------------------------------------------------|
D------4--------------------4---2----22h4p2-------5-------5---------|
A--222---4h5--5h7----00--0---00----------------5------5-------------|
D--------------------------------------------55-----55--5-----5-7---|
Chorus:
G-------------------------------------------------------------------|
D-------------------------------------------------------------------|
A---22222222--4h5---00000000--4h5-----------------------------------|
D----------------------------------------------5555555555555555-----|

Bridge
This part is kind of random, just play this a lot
G-----------------------------------------------------------------------|
D-----------------------------------------------------------------------|
A-----------------------------------------------------------------------|
D---------555555555555555555555555555 ----------------------------------|


End on:
G----------|
D----------|
A-2~--2----|
D----------|

Order:
Intro/Verse x4
Chorus x2
Intro/Verse x4
Chorus x2
Breakdown thingy.. figure out the rhythm
chorus x4

            
            
Suggest correction
Creating personal tab
Creating personal tab
You can edit any tab online and save it as your Personal.

You can edit, replace or remove any tab part or add personal notes – all changes will be seen only by you.

Personal tabs can be accessed anytime from any device, even offline.
Learn more »
Give kudos to tab author, rate the tab!
1 2 3 4 5
comments
print report bad tab
3 comments total.
0 reply
safetyinnumbers 223 Feb 03, 2007 06:44 PM

I guess what you mean by "regular" tuning is standard. So if it's in standard, why do you have it tabbed in Drop D. Where the E is dropped a whole step down?...

0 reply
NoDeadHeroes 10 Feb 25, 2008 05:16 PM

Valid effort, but there are a few mistakes that can be corrected by ear.

0 reply
ikejamesfausett 13 Jan 18, 2017 01:55 PM

Tuning is not regular. This is drop D most of this is garbage tab. How did this pass the tab checker. Good effort for a first tab... If you're 12 playing on a short scale.

guest
You may want to rate the tab now too:
select rating
Wanna post a correction for this tab? Suggest correction