Oops, an error
Loading. Please wait.

Timberwolves At New Jersey Tab

version 4
version 4

Interactive

1,983 views 1 this week
no commentswrite comment
1 2 3 4 5
x 3
add to favorites
launch autoscroll
font size
0
reset
how to read this tab
guitar tuner
×
Best way to learn
"Timberwolves At New Jersey"
Autoscroll
slow
fast
+/-
esc
set tempo
stop
(adapted to one guitar)

~standard tuning~

() - palm mute
/ - slide

Intro. (X4)
e----(0)----(0)----(0)----(0)----|
B----(1)----(3)----(1)----(3)----|
G----(2)----(0)----(2)----(0)----|
D----(3)----(0)----(2)----(4)----|
A-----X-----(0)----(0)----(5)----|
E-----X-----(3)-----X------X-----|

Verse (X2)
e----0----X-X----X----X-----X---X---X---X--X-----X---X---X---X--X----|
B----1----X-X----X----X-----X---X---X---X--X-----X---X---X---X--X----|
G----2----4/5----5----X-----X---X---X---X--X-----X---X---X---X--X----|
D----2----4/5----5----5----(2)-(2)-(2)-(2)-2----(3)-(3)-(3)-(3)-3----|
A----0----2/3----3----5----(2)-(2)-(2)-(2)-2----(3)-(3)-(3)-(3)-3----|
E----X----X-X----X----3----(0)-(0)-(0)-(0)-0----(1)-(1)-(1)-(1)-1----|

Chorus (X4)
e----(0)----(0)----(0)----(0)----|
B----(1)----(3)----(1)----(3)----|
G----(2)----(0)----(2)----(0)----|
D----(3)----(0)----(2)----(4)----|
A-----X-----(0)----(0)----(5)----|
E-----X-----(3)-----X------X-----|

Verse (X2)
e----0----X-X----X----X-----X---X---X---X--X-----X---X---X---X--X----|
B----1----X-X----X----X-----X---X---X---X--X-----X---X---X---X--X----|
G----2----4/5----5----X-----X---X---X---X--X-----X---X---X---X--X----|
D----2----4/5----5----5----(2)-(2)-(2)-(2)-2----(3)-(3)-(3)-(3)-3----|
A----0----2/3----3----5----(2)-(2)-(2)-(2)-2----(3)-(3)-(3)-(3)-3----|
E----X----X-X----X----3----(0)-(0)-(0)-(0)-0----(1)-(1)-(1)-(1)-1----|

Bridge (X8)
e--------------------------------0------|
B--------0-------0-------0-----1---1----|
G------5---5---5---5---5---5------------|
D---------------------------------------|
A----0-------3--------------------------|
E--------------------0-------1----------|

Outro.
e----0----X----X----X----|
B----1----X----X----X----|
G----2----5----X----X----|
D----2----5----5----3----|
A----0----3----5----3----|
E----X----X----3----1----|
Suggest correction
Give kudos to tab author, rate the tab!
1 2 3 4 5
comments
print report bad tab
guest
You may want to rate the tab now too:
select rating
Wanna post a correction for this tab? Suggest correction