Oops, an error
Loading. Please wait.

Timberwolves At New Jersey tab

version 5
version 5

Interactive

1,741 views 1 this week
3 commentsread comments
1 2 3 4 5
x 5
add to favorites
×
Save as Personal and add changes to this tab that will be seen only by you. Learn more ›
×
You can save this tab as Personal to edit and correct it or add notes. All changes will be seen only by you. Learn more »
launch autoscroll
font size
0
reset
how to read this tab
guitar tuner
edit
Autoscroll
slow
fast
+/-
esc
set tempo
stop
Artist:Taking Back Sunday
Song:Timberwolves At New Jersey
Tabbed By:Eddie Danecki
e-mail comments to: cutfromtheteam51@aol.com
..no one has had this right! this is perfect!

Intro(clean)/Verse(distortion)
e-------------------------------------------------------------|
b-11-11-11-11-11-33-33-33-33-33-11-11-11-11-11-33-33-33-33-33-|
g-22-22-22-22-22-44-44-44-44-44-22-22-22-22-22-11-11-11-11-11-|
d-33-33-33-33-33-55-55-55-55-55-22-22-22-22-22-22-22-22-22-22-|
a-33-33-33-33-33-55-55-55-55-55-00-00-00-00-00-22-22-22-22-22-|
e-------------------------------------------------------------|


Chorus
e------------------------------------------------------0------|
b------------------------------------------------------0------|
g-2222222222222222-5555555555555555--------------------4------|
d-2222222222222222-5555555555555555-5555555555555555-22-22222-|
a-0000000000000000-3333333333333333-5555555555555555-22-22222-|
e-----------------------------------3333333333333333-00-00000-|


Interlude
e-------------------------------0----|
b-----0-------0--------0-----------0-|
g---3---3---3---3----3---3----2------|
d------------------------------------|
a-0------3---------------------------|
e------------------3--------1--------|

Interlude End
e-----------------|
b-----------------|
g-2---5-----------|
d-2---5---3---3---|
a-0---3---3---3---|
e---------5---1---|


First Ending
e-------------------------------------|
b-------------------------------------|
g-22222222-55555555-------------------|
d-22222222-55555555-55555555-33333333-|
a-00000000-33333333-55555555-33333333-|
e-------------------33333333-11111111-|


Second Ending Guitar 1
e---------------------------------|
b---------------------------------|
g-2222-22-5555-55-----------------|
d-2222-22-5555-55-5555-55-3333-33-|
a-0000-00-3333-33-5555-55-3333-33-|
e-----------------3333-33-1111-11-|
pm................................


Second Ending Guitar 2\
e-------0-----------0-----------0-----------0-----|
b----------1-----------1-----------1-----------1--|
g----2-----------2-----------2-----------2--------|
d-------------------------------------------------|
a-------------0-----------3-----------------------|
e-1-----------------------------------3-----------|

ORDER:
Verse(clean) x1
Verse(distortion) x 2
Chorus x2
Verse (distortion) x3
Chorus x2
Interlude x8
Interlude End x2
First Ending x4
Second Ending Guitar 1 x2 \
Second Ending Guitar 1 x2 / play second endings together

            
            
Suggest correction
Creating personal tab
Creating personal tab
You can edit any tab online and save it as your Personal.

You can edit, replace or remove any tab part or add personal notes – all changes will be seen only by you.

Personal tabs can be accessed anytime from any device, even offline.
Learn more »
comments
print report bad tab
3 comments total.
0 reply
superboi 10 Mar 28, 2005 07:00 PM

thinkin its kooli part from the interlude:

Interlude
e-------------------------------0----|
b-----0-------0--------0-----------0-|
g---5---5---5---5----5---5----4------|
d------------------------------------|
a-0------3---------------------------|
e------------------3--------1--------|

+1 reply
curiouscherry 190 Sep 09, 2006 10:07 AM

superboi is right - his version of the interlude siounds much better, but other than that good tab

-1 reply
b_mals 10 Feb 01, 2007 09:18 AM

the rest of it is wrong...at least in the live version...intro is way off!

guest
Wanna post a correction for this tab? Suggest correction