Oops, an error
Loading. Please wait.

Up Against tab

version 2
version 2

Whole song

6,096 views 3 this week
3 commentsread comments
1 2 3 4 5
x 6
add to favorites
×
Save as Personal and add changes to this tab that will be seen only by you. Learn more ›
×
You can save this tab as Personal to edit and correct it or add notes. All changes will be seen only by you. Learn more »
launch autoscroll
font size
0
reset
how to read this tab
guitar tuner
edit
Autoscroll
slow
fast
+/-
esc
set tempo
stop
Artist: Taking Back Sunday
Song: Up Against(Blackout)
Album: Louder Now
Tuning: Drop Db(Db,Ab,Db,Gb,Bb,Eb)

Okay, I have what I believe is a 100% correct tab. Comment it please.
This song doesn't necessarily have to be in Drop Db, but it sure makes
it a whole lot easier.

pm. - Palm Mute
* - Natural Harmonic

Credit goes to Jonathan Clark for the intro.

Intro (guitar 1)
Eb--------------------------------------------------------------------|x2
Bb--------------------------------------------------------------------|
Gb--------------------------------------------------------------------|
Db------12---11--------7---9--55-55-55-55-----------------------------|
Ab----9--------------5--------55-55-55-55-----------------------------|
Db--9------7----0--4-----5----55-55-55-55-----------------------------|
pm  . .    .    .  . .   . 

Intro (guitar 2)
Eb--------------------------------------------------------------------|x2
Bb--------------------------------------------------------------------|
Gb--------------------------------------------------------------------|
Db----------------------------9-9--9-9--9-9--9-9----------------------|
Ab----------------------------1010-1010-1010-1010---------------------|
Db--------------------------------------------------------------------|

Fill (guitar 1)
Eb--------------------------------------------------------------------|
Bb--------------------------------------------------------------------|
Gb-----5*-------------------------------------------------------------|
Db---5*---------------------------------------------------------------|
Ab-5*-----------------------------------------------------------------|
Db--------------------------------------------------------------------|

Chorus (guitar 1)
Eb--------------------------------------------------------------------|x4
Bb--------------------------------------------------------------------|
Gb--------------------------------------------------------------------|
Db-999-777-444-555--55-55-55-55---------------------------------------|
Ab-999-777-444-555--55-55-55-55---------------------------------------|
Db-999-777-444-555--55-55-55-55---------------------------------------|

Chorus (guitar 2)
Eb--------------------------------------------------------------------|x4
Bb-101010-888-777-888-------------------------------------------------|
Gb-9-9-9--999-666-777-------------------------------------------------|
Db--------------------9-9--9-9--9-9--9-9------------------------------|
Ab--------------------1010-1010-1010-1010-----------------------------|
Db--------------------------------------------------------------------|

Verse (guitar 2 only)
Eb--------------------------------------------------------------------|
Bb--------------------------------------------------------------------|
Gb-4~------------7----------7-----------------------------------------|
Db-x-------7---7-x----7---7-x----7---7--------------------------------|
Ab-2~-----5---5--5---5---5--5---5---5---------------------------------|
Db-------5---5------5---5------5---5----------------------------------|

Pre-chorus(guitar 1)(could be wrong, its hard to hear)
Eb-----5*-------5*-----------------------------------------------------|
Bb-------5*-------5*---------------------------------------------------|
Gb---------5*-5*----5*-------------------------------------------------|
Db---5-----------------------------------------------------------------|
Ab--5------------------------------------------------------------------|
Db-5-------------------------------------------------------------------|

Pre-chorus(guitar 2)
Eb--------------------------------------------------------------------|
Bb--------------------------------------------------------------------|
Gb------/999999/111111111111------------------------------------------|
Db-5~----xxxxxx--x-x-x-x-x-x------------------------------------------|
Ab-5~---/777777/-9-9-9-9-9-9------------------------------------------|
Db-5~-----------------------------------------------------------------|

Play Chorus again.

2nd Verse(guitar 1)(guitar 2 stays the same)(clean)
Eb---10-10---10-10----10-10---10-10-----------------------------------|x3
Bb--------------------------------------------------------------------|
Gb-7-------7--------7-------7-----------------------------------------|
Db--------------------------------------------------------------------|
Ab--------------------------------------------------------------------|
Db--------------------------------------------------------------------|
This is very quiet


Bridge(guitar 1)                   elevens       this section x4
Eb----------------------------|---------------------------------------|
Bb------------19*------12*----|-----------------------------101010----|
Gb-----5*--------19*----------|----111111999-------111111999----------|
Db---5*-------------19*-------|-999---------999-999-------------------|
Ab-5*-------------------------|---------------------------------------|
Db----------------------------|---------------------------------------|
pm                              .....................................

Interlude(guitar 1)
Eb--------------------------------------------------------------------|x4
Bb--------------------------------------------------------------------|
Gb--------------------------------------------------------------------|
Db------12---11--------7---9------------------------------------------|
Ab----9--------------5------------------------------------------------|
Db--9------7----0--5-----5--------------------------------------------|
pm  . .    .    .  . .   . 


Outro(guitar 1)
Eb--------------------------------------------------------------------|
Bb--------------------------------------------------------------------|
Gb--------------------------------------------------------------------|
Db-55-55-55-55-55-55-55-55-55-55-55-55-55-55--------------------------|
Ab-55-55-55-55-55-55-55-55-55-55-55-55-55-55--------------------------|
Db-55-55-55-55-55-55-55-55-55-55-55-55-55-55--------------------------|

Outro(guitar 2)
Eb-----------------------------------------------------------------------|
Bb-----------------------------------------------------------------------|
Gb-----------------------------------------------------------------------|
Db-9-9--9-9--9-9--9-9--9-9--9-9--9-9--9-9--9-9--9-9--9-9--9-9--9-9--9-9--|
Ab-1010-1010-1010-1010-1010-1010-1010-1010-1010-1010-1010-1010-1010-1010-|
Db-----------------------------------------------------------------------|

Well, thats it. Hope you guys like it, and hopefully it helps. 
Anything to say to me send to SaintJimmy10@yahoo.com
Rate it please.




Suggest correction
Creating personal tab
Creating personal tab
You can edit any tab online and save it as your Personal.

You can edit, replace or remove any tab part or add personal notes – all changes will be seen only by you.

Personal tabs can be accessed anytime from any device, even offline.
Learn more »
comments
print report bad tab
3 comments total.
0 reply
getoutofhere 81 Jun 15, 2006 01:15 PM

this tab is awesome. except on the interlude the 12 harmonic should be on the b string. the rest is good.

0 reply
SaintJimmy105 341 Jun 15, 2006 02:04 PM

Yeah, I noticed that and was just about to correct that. Thanks.

0 reply
shugo449 530 Aug 31, 2006 03:25 PM

totally rocks real nice tab

guest
You may want to rate the tab now too:
select rating
Wanna post a correction for this tab? Suggest correction