Oops, an error
Loading. Please wait.

What It Feels Like To Be A Ghost bass

version 1
version 1

Whole song

Interactive

2,593 views 3 this week
5 commentsread comments
1 2 3 4 5
x 3
add to favorites
×
Save as Personal and add changes to this tab that will be seen only by you. Learn more ›
×
You can save this tab as Personal to edit and correct it or add notes. All changes will be seen only by you. Learn more »
launch autoscroll
font size
0
reset
guitar tuner
edit
Autoscroll
slow
fast
+/-
esc
set tempo
stop
Author
Difficulty
-------------------------------------------------------------------------------
			     What's it feel like to be a ghost - Taking Back Sunday
-------------------------------------------------------------------------------

Tabbed By : imh


Tuning:Standard

ALL FINGERS!!! NO PICKS!!!


INTRO: Wait for guitar riff to play 1 time through then play this note with the first 
of the bass drum AND BEND IT!
G|-----|
D|-----|
A|-----|
E|--4~-|

AFTER 2 TIMES THROUGH OF THE GUITAR RIFF...
G|------------------------------|-----------------------------|
D|------------------------------|-----------------------------|
A|------------------------------|-----------------------------|
E|-444-4-4444-4-4000-0-0000-0-0-|444-4-4444-4-4000-0-0000-0-2~|

1ST VERSE: PLAY THIS 4X AND ADD THE ENDING ON ONLY THE 4TH TIME
G|----------------------------------|        |------|
D|----------------------------------| ON --> |------|
A|----------------------------------| 4X     |--0-0-|
E|-44400044400044002222222222222222-|        |-4-4--|

CHORUS:
G|--------------------------------|
D|--------------------------------|
A|--------------------------------|
E|-4444444444444444-0--0-000-0-0--|

G|--------------------------------|
D|--------------------------------|
A|--------------------------------|
E|-4444444444444444-0--0-000-0-2~-|

G|----------------------------------|
D|----------------------------------|
A|----------------------------------|
E|-44444444444444440000000000000000-|

G|--------------------------------|
D|--------------------------------|
A|--------------------------------|
E|-4444444444444444-0--0-000-0-2~-|

2ND VERSE: LET GUITAR PLAY BEGINNING OF VERSE AND THEN COME IN WITH THIS
"it sits..."
G|---------------|
D|---------------|
A|---------------|
E|-222222222222--|

STILL ON THE VERSE...
PLAY THIS 3X THROUGH JUST HOW IT IS...LET THE GUITAR PLAY THE END TO THE VERSE
"arm..."
G|------------------------------------|
D|------------------------------------|
A|------------------------------------| 3X
E|-44400044400044002222222222222222---|

CHORUS:
G|--------------------------------|
D|--------------------------------|
A|--------------------------------|
E|-4444444444444444-0--0-000-0-0--|

G|--------------------------------|
D|--------------------------------|
A|--------------------------------|
E|-4444444444444444-0--0-000-0-2~-|

G|----------------------------------|
D|----------------------------------|
A|----------------------------------|
E|-44444444444444440000000000000000-|

G|------------------------------------------|
D|------------------------------------------|
A|------------------------------------------|
E|-44444444444444440----0--000--00-000--000~|

HAVENT FIGURED OUT THE BRIDGE..PROBABLY A COMBINATION OF 0,2, AND 4 ON THE 'E' STRING....

I DID FIGURE OUT THE LAST PART OF THE BRIDGE

LAST PART OF BRIDGE..WHEN IT IS COMING BACK:
G|------------------------------------|
D|------------------------------------|
A|------------------------------------|
E|444466667777999966667777999910101010|

LET THE GUITAR RIFF PLAY ONCE WITH A BENDED NOTE ON THE FIRST BASS DRUM:
G|-----|
D|-----|
A|-----|
E|--4~-|

RIGHT BEFORE THE LAST CHORUS PLAY
G|-----|
D|-----|
A|-----|
E|--2~-|

CHORUS:
G|--------------------------------|
D|--------------------------------|
A|--------------------------------|
E|-4444444444444444-0--0-000-0-0--|

G|--------------------------------|
D|--------------------------------|
A|--------------------------------|
E|-4444444444444444-0--0-000-0-2~-|

G|----------------------------------|
D|----------------------------------|
A|----------------------------------|
E|-44444444444444440000000000000000-|

G|-----------------------------------|
D|-----------------------------------|
A|-----------------------------------|
E|-444444444444444400000000000000002~|

OUTRO
G|--------------------|
D|---4~--4----4~--4---|
A|--------------------|
E|-4----4--444---4--44|


| /  slide up
|   slide down
| h  hammer-on
| p  pull-off
| ~  vibrato
| +  harmonic
| x  Mute note
===============================================================================

            
            
Suggest correction
Creating personal tab
Creating personal tab
You can edit any tab online and save it as your Personal.

You can edit, replace or remove any tab part or add personal notes – all changes will be seen only by you.

Personal tabs can be accessed anytime from any device, even offline.
Learn more »
Give kudos to tab author, rate the tab!
1 2 3 4 5
comments
print report bad tab
5 comments total. Showing first comments.
0 reply
saosinlova 10 May 03, 2006 08:41 AM

alright, get a stereo with bass, turn it up, turn the bass up to, and listen, you might then want to redo this tab, but no hard feelings, at least you tried but there are much better bass lines for this tab.

0 reply
BurtBobain 16 May 08, 2006 02:29 PM

this is in drop d and if u dont believe me watch the video on www.myspace.com/thelist u can clearly see the bassist playing
-----------------------------------------------------------------
-----------------------------------------------------------------
-----------------------------------------------------------------
-----------------------------------------------------------------
-----------------------------------------------------------------
-6-6-6-2-2-2-6-6-6-2-2-2-6-6-2-2-4-4-4-4-4-4-4-4-4-4-4-4-4-4-4-4-

0 reply
eblood21 43 May 09, 2006 12:47 PM

hey pal...that and my tuning and playing are exactly the same sound u wud know that unless you are retarted...2 places down...same thing..who cares

guest
You may want to rate the tab now too:
select rating
Wanna post a correction for this tab? Suggest correction