Oops, an error
Loading. Please wait.

Whats It Feel Like To Be A Ghost bass

version 1
version 1

Whole song

Interactive

6,052 views 15 this week
3 commentsread comments
1 2 3 4 5
x 4
add to favorites
×
Save as Personal and add changes to this tab that will be seen only by you. Learn more ›
×
You can save this tab as Personal to edit and correct it or add notes. All changes will be seen only by you. Learn more »
launch autoscroll
font size
0
reset
guitar tuner
edit
Autoscroll
slow
fast
+/-
esc
set tempo
stop
Author
Difficulty
-------------------------------------------------------------------------------
			     What's It Feel Like To Be A Ghost - Taking Back Sunday
-------------------------------------------------------------------------------

Tabbed By: Phil Nicholls

email: spikeymaracca@hotmail.com

Intro

Gb|-----|
Db|-----|
Ab|-----|
Db|--7~-| Hit the note after the riff goes through once. Hold it then slide down.

Full Band Intro

Gb|----------------------------------------------------------------------------------|
Db|----------------------------------------------------------------------------------|
Ab|----------------------------------------------------------------------------------|
Db|--0~--77777777777777777-33333333333333333-77777777777777777-33333333333333333-0~--|

Verse

Gb|--------------------------------------------------------------------|
Db|--------------------------------------------------------------------|
Ab|--------------------------------------------------------------------|
Db|--7-7-7-3-3-3-7-7-7-3-3-3-7-7-3-3-5-5-5-5-5-5-5-5-5-5-5-5-5-5-5-5---| x 3

4th Time Round play this

Gb|---------------------------------------------------------------------|
Db|---------------------------------------------------------------------|
Ab|------------------------------------------------------------5---5----|
Db|--7-7-7-3-3-3-7-7-7-3-3-3-7-7-3-3-5-5-5-5-5-5-5-5-5-5-5-5-3---3------|


Chorus

Gb|-------------------------------------------|
Db|-------------------------------------------|
Ab|--------------------5---5-------5---5------|
Db|-7777777777777777-3---3---3-3-3---3---3----|

Gb|-------------------------------------------|
Db|-------------------------------------------|
Ab|--------------------5---5-------5----------|
Db|-7777777777777777-3---3---3-3-3---0~-------|

Gb|-------------------------------------------|
Db|-------------------------------------------|
Ab|-------------------------------------------|
Db|-777777777777777777-3333333333333333333----|

Gb|-------------------------------------------|
Db|-------------------------------------------|
Ab|--------------------5---5-------5----------|
Db|-7777777777777777-3---3---3-3-3---0~-------|

2nd Verse

"...quite painless it sits..."

Gb|----------------------------------------------------|
Db|----------------------------------------------------|
Ab|----------------------------------------------------|
Db|-------------------5-5-5-5-5-5-5-5-5-5-5-5-5-5-5-5--| x1

Gb|--------------------------------------------------------------------|
Db|--------------------------------------------------------------------|
Ab|--------------------------------------------------------------------|
Db|--7-7-7-3-3-3-7-7-7-3-3-3-7-7-3-3-5-5-5-5-5-5-5-5-5-5-5-5-5-5-5-5---| x2

4th Time

Gb|----------------------------------------------------------|----------|
Db|----------------------------------------------------------|----------|
Ab|----------------------------------------------------------|--15---15-|
Db|--7-7-7-3-3-3-7-7-7-3-3-3-7-7-3-3-5-5-5-5-5-5-5-5-5-5-5-5-|13---13---|
                                                             |Distortion|

Chorus

Gb|-------------------------------------------|
Db|-------------------------------------------|
Ab|--------------------5---5-------5---5------|
Db|-7777777777777777-3---3---3-3-3---3---3----|

Gb|-------------------------------------------|
Db|-------------------------------------------|
Ab|--------------------5---5-------5----------|
Db|-7777777777777777-3---3---3-3-3---0~-------|

Gb|-------------------------------------------|
Db|-------------------------------------------|
Ab|-------------------------------------------|
Db|-777777777777777777-3333333333333333333----|

Gb|-----------------------------------------------------------|
Db|-----------------------------------------------------------|
Ab|--------------------5---5-------5-------5-------5----------|
Db|-7777777777777777-3---3---3-3-3---3-3-3---3-3-3---3-3-0~---|

Bridge

Gb|--------------------------|
Db|--------------------------|
Ab|--------------------------|
Db|-10~-12~\5~-10~\7~-5~\3~--| x1

Gb|-------------------------------------------|
Db|-------------------------------------------|
Ab|-------------------------------------------|
Db|-10x12--12x4--5x12--10x4--7x12--5x4--3x12--| x 2


4th timne round

Gb|-------------------------------------------|
Db|-------------------------------------------|
Ab|-------------------------------------------|
Db|-10x12--12x4--5x12--10x4--7x12--5x4--------|

then straight from the 5th fret into the build up which is

Gb|-----------------------------------------------------------------|
Db|-----------------------------------------------------------------|
Ab|-----------------------------------------------------------------|
Db|-7777-9999-11111111-12121212-11111111-12121212-14141414-15151515-|

After this Fred plays the intro - and play exactly what i put for the intro so the hold 
slide from 7th fret and the then open Db and let ring when Fred does.

End Chorus

Gb|---------------------------------------------|
Db|---------------------------------------------|
Ab|--------------------5---5-------5---5--------|
Db|-7777777777777777-3---3---3-3-3---3---3------|

Gb|---------------------------------------------|
Db|---------------------------------------------|
Ab|--------------------5---5-------5------------|
Db|-7777777777777777-3---3---3-3-3---0~---------|

Gb|---------------------------------------------|
Db|---------------------------------------------|
Ab|---------------------------------------------|
Db|-777777777777777777-3333333333333333333------|

Gb|---------------------------------------------|
Db|---------------------------------------------|
Ab|---------------------------------------------|
Db|-777777777777777777-3333333333333333333---0~-|

Outro

Gb|--------------------------------|
Db|--------------------------------|
Ab|---10---10-------10---10--------|
Db|-7----7----7-7-7----7----7-7----|

            
            
Suggest correction
Creating personal tab
Creating personal tab
You can edit any tab online and save it as your Personal.

You can edit, replace or remove any tab part or add personal notes – all changes will be seen only by you.

Personal tabs can be accessed anytime from any device, even offline.
Learn more »
comments
print report bad tab
3 comments total.
0 reply
LoveBass 31 Sep 08, 2007 09:41 AM

pretty much perfect thanks :)!

0 reply
kerjacklebass&! 52 Apr 21, 2008 12:40 PM

awsome

im glad someone else found the thign you do with the guitar during the chorus

0 reply
maxpowweer 639 May 28, 2015 09:01 AM

Seems spot on, 5/5!

guest
You may want to rate the tab now too:
select rating
Wanna post a correction for this tab? Suggest correction