Oops, an error
Loading. Please wait.

Whats It Feel Like To Be A Ghost tab

version 1
version 1

Whole song

Interactive

21,793 views 36 this week
7 commentsread comments
1 2 3 4 5
x 10
add to favorites
×
Save as Personal and add changes to this tab that will be seen only by you. Learn more ›
×
You can save this tab as Personal to edit and correct it or add notes. All changes will be seen only by you. Learn more »
launch autoscroll
font size
0
reset
how to read this tab
guitar tuner
edit
Autoscroll
slow
fast
+/-
esc
set tempo
stop
Author
Difficulty
----------------------------------------------------------------------
    Whats It Feel Like To Be A Ghost? – Taking Back Sunday
----------------------------------------------------------------------
Tabbed by: Panda-Spirit
Email:

Tuning: Half-Step (Eb-Ab-Db-Gb-Bb-eb)

 
Intro

Guitar 1
eb| |---------------------------------|---------------------------------|
Bb| |---------------------------------|---------------------------------|
Gb| |---------------------------------|---------------------------------|
Db| |---------------------------------|---------------------------------|
Ab| |-x--10-----x10-x-x-x10-----x10-x-|-x---5-----x-5-x-x-x-5-----x-5-x-|
Db| |-7---------7---7-7-7-------7---7-|-3---------3---3-3-3-------3---3-|

Guitar 1
eb| |---------------------------------|---------------------------------|
Bb| |---------------------------------|---------------------------------|
Gb| |---------------------------------|---------------------------------|
Db| |---------------------------------|-----------------------------0---|
Ab| |-x--10-----x10-x-x-x10-----x10-x-|-x---5-----x-5-x-x-x-5b------0---|
Db| |-7---------7---7-7-7-------7---7-|-3---------3---3-3-3---------0---|

Guitar 1
eb| |---------------------------------|---------------------------------|
Bb| |---------------------------------|---------------------------------|
Gb| |---------------------------------|---------------------------------|
Db| |---------------------------------|---------------------------------|
Ab| |-x--10-----x10-x-x-x10-----x10-x-|-x---5-----x-5-x-x-x-5-----x-5-x-|
Db| |-7---------7---7-7-7-------7---7-|-3---------3---3-3-3-------3---3-|
                                                                        |
Guitar 2                                                                |
eb| |---------------------------------|---------------------------------|
Bb| |---------------------------------|---------------------------------|
Gb| |-2---2-----2---2-2-2-2-----2---2-|---------------------------------|
Db| |-2---2-----2---2-2-2-2-----2---2-|-3---3-----3---3-3-3-3-----3---3-|
Ab| |-0---0-----0---0-0-0-0-----0---0-|-3---3-----3---3-3-3-3-----3---3-|
Db| |---------------------------------|-3---3-----3---3-3-3-3-----3---3-|

Guitar 1
eb| |---------------------------------|---------------------------------|
Bb| |---------------------------------|---------------------------------|
Gb| |---------------------------------|---------------------------------|
Db| |---------------------------------|-----------------------------0---|
Ab| |-x--10-----x10-x-x-x10-----x10-x-|-x---5-----x-5-x-x-x-5b------0---|
Db| |-7---------7---7-7-7-------7---7-|-3---------3---3-3-3---------0---|
                                                                        |
Guitar 2                                                                |
eb| |---------------------------------|---------------------------------|
Bb| |---------------------------------|---------------------------------|
Gb| |-2---2-----2---2-2-2-2-----2---2-|---------------------------------|
Db| |-2---2-----2---2-2-2-2-----2---2-|-3---3-----3---3-3-3-3-------0---|
Ab| |-0---0-----0---0-0-0-0-----0---0-|-3---3-----3---3-3-3-3-------0---|
Db| |---------------------------------|-3---3-----3---3-3-3-3-------0---|


Verse

Guitar 1
eb| |---------------------------------|---------------------------------|
Bb| |---------------------------------|---------------------------------|
Gb| |-2-2-2-------2-2-2-------2-2-----|---------------------------------|
Db| |-2-2-2-3-3-3-2-2-2-3-3-3-2-2-3-3-|-5-5-5-5-5-5-5-5-5-5-5-5-5-5-5-5-|
Ab| |-0-0-0-3-3-3-0-0-0-3-3-3-0-0-3-3-|-5-5-5-5-5-5-5-5-5-5-5-5-5-5-5-5-|
Db| |-------3-3-3-------3-3-3-----3-3-|-5-5-5-5-5-5-5-5-5-5-5-5-5-5-5-5-|
PM:   . . . . . . . . . . . . . . . .   . . . . . . . . . . . . . . . .
      Then you said  about your dreams  My call...           "If you
      a little more  like that was                (My call)   would only

Guitar 1
eb| |---------------------------------|---------------------------------|
Bb| |---------------------------------|---------------------------------|
Gb| |-2-2-2-------2-2-2-------2-2-----|---------------------------------|
Db| |-2-2-2-3-3-3-2-2-2-3-3-3-2-2-3-3-|-5-5-5-5-5-5-5-5-5-5-5-5-5-5-5-5-|
Ab| |-0-0-0-3-3-3-0-0-0-3-3-3-0-0-3-3-|-5-5-5-5-5-5-5-5-5-5-5-5-5-5-5-5-|
Db| |-------3-3-3-------3-3-3-----3-3-|-5-5-5-5-5-5-5-5-5-5-5-5-5-5-5-5-|
PM:   . . . . . . . . . . . . . . . .   . . . . . . . . . . . . . . . .
      Listen" Bypassed everything and    Straight for the neck          
                                 went   (Straight for the neck)         
                                                                        
Guitar 2                                                                
eb| |---------------------------------|---------------------------------|
Bb| |---------------------------------|---------------------------------|
Gb| |-----------------------------5/7-|---------------------------------|
Db| |-----------------------------x-x-|---------------------------12/14-|
Ab| |-----------------------------3/5-|---------------------------------|
Db| |---------------------------------|---------------------------------|

Guitar 1
eb| |---------------------------------|---------------------------------|
Bb| |---------------------------------|---------------------------------|
Gb| |-2-2-2-------2-2-2-------2-2-----|---------------------------------|
Db| |-2-2-2-3-3-3-2-2-2-3-3-3-2-2-3-3-|-5-5-5-5-5-5-5-5-5-5-5-5-5-5-5-5-|
Ab| |-0-0-0-3-3-3-0-0-0-3-3-3-0-0-3-3-|-5-5-5-5-5-5-5-5-5-5-5-5-5-5-5-5-|
Db| |-------3-3-3-------3-3-3-----3-3-|-5-5-5-5-5-5-5-5-5-5-5-5-5-5-5-5-|
PM:   . . . . . . . . . . . . . . . .   . . . . . . . . . . . . . . . . 
                  We're studied                            Dragged you 
     (I study)                      (Up nightly)                        
                                                                        
Guitar 2                                                                
eb| |---------------------------------|---------------------------------|
Bb| |---------------------------------|---------------------------------|
Gb| |---------------------------------|---------------------------------|
Db| |141514121512--15----15--1415--15-|141514121512--15----15--1415--15-|
Ab| |------------15--1514--12----12---|------------15--1514--12----12---|
Db| |---------------------------------|---------------------------------|
PM:  . . . . . . . . . . . . . . . .   . . . . . . . . . . . . . . . .  

Guitar 1
eb| |---------------------------------|---------------------------------|
Bb| |---------------------------------|---------------------------------|
Gb| |-2-2-2-------2-2-2-------2-2-----|---------------------------------|
Db| |-2-2-2-3-3-3-2-2-2-3-3-3-2-2-3-3-|-5-5-5-5-5-5-5-5-5-5-5-5---------|
Ab| |-0-0-0-3-3-3-0-0-0-3-3-3-0-0-3-3-|-5-5-5-5-5-5-5-5-5-5-5-5-x-5-x-5-|
Db| |-------3-3-3-------3-3-3-----3-3-|-5-5-5-5-5-5-5-5-5-5-5-5-3---3---|
PM:   . . . . . . . . . . . . . . . .   . . . . . . . . . . . .
      Out  Into the streets  Before you buckle at your knees            
                                                  (Buckle at your knees)
                                                                        
Guitar 2                                                                
eb| |---------------------------------|---------------------------------|
Bb| |---------------------------------|---------------------------------|
Gb| |---------------------------------|---------------------------------|
Db| |141514121512--15----15--1415--15-|141514121512--15----15--1415--15-|
Ab| |------------15--1514--12----12---|------------15--1514--12----12---|
Db| |---------------------------------|---------------------------------|
PM:  . . . . . . . . . . . . . . . .   . . . . . . . . . . . . . . . . 

Pre-Chorus 


Guitar 1
eb| |---------------------------------|---------------------------------|
Bb| |---------------------------------|---------------------------------|
Gb| |14141414141414141212121212121212-|---------------------------------|
Db| |-x-x-x-x-x-x-x-x-x-x-x-x-x-x-x-x-|---------------------------------|
Ab| |12121212121212121010101010101010-|-x---5-----x-5-x-x-x-5-----x-5-x-|
Db| |---------------------------------|-3---------3---3-3-3-------3---3-|
          "What's it feel like to be a  ghost?"                         
                                                (Louder now, louder now)
                                                                        
Guitar 2                                                                
eb| |---------------------------------|---------------------------------|
Bb| |---------------------------------|---------------------------------|
Gb| |-2-2-2-2-2-2-2-2-2-2-2-2-2-2-2-2-|---------------------------------|
Db| |-2-2-2-2-2-2-2-2-2-2-2-2-2-2-2-2-|-3---3-----3---3-3-3-3-----3---3-|
Ab| |-0-0-0-0-0-0-0-0-0-0-0-0-0-0-0-0-|-3---3-----3---3-3-3-3-----3---3-|
Db| |---------------------------------|-3---3-----3---3-3-3-3-----3---3-|

Guitar 1
eb| |---------------------------------|---------------------------------|
Bb| |---------------------------------|---------------------------------|
Gb| |14141414141414141212121212121212-|---------------------------------|
Db| |-x-x-x-x-x-x-x-x-x-x-x-x-x-x-x-x-|-----------------------------0---|
Ab| |12121212121212121010101010101010-|-x---5-----x-5-x-x-x-5b------0---|
Db| |---------------------------------|-3---------3---3-3-3---------0---|
          "What's it feel like to be a  ghost?"                         
                                                      (Now...)          
                                                                        
Guitar 2                                                                
eb| |---------------------------------|---------------------------------|
Bb| |---------------------------------|---------------------------------|
Gb| |-2-2-2-2-2-2-2-2-2-2-2-2-2-2-2-2-|---------------------------------|
Db| |-2-2-2-2-2-2-2-2-2-2-2-2-2-2-2-2-|-3---3-----3---3-3-3-3-------0---|
Ab| |-0-0-0-0-0-0-0-0-0-0-0-0-0-0-0-0-|-3---3-----3---3-3-3-3-------0---|
Db| |---------------------------------|-3---3-----3---3-3-3-3-------0---|

 Chorus

Guitar 1 & 2
eb| |---------------------------------|---------------------------------|
Bb| |---------------------------------|---------------------------------|
Gb| |-2-2-2-2-2-2-2-2-2-2-2-2-2-2-2-2-|---------------------------------|
Db| |-2-2-2-2-2-2-2-2-2-2-2-2-2-2-2-2-|-3-3-3-3-3-3-3-3-3-3-3-3-3-3-3-3-|
Ab| |-0-0-0-0-0-0-0-0-0-0-0-0-0-0-0-0-|-3-3-3-3-3-3-3-3-3-3-3-3-3-3-3-3-|
Db| |---------------------------------|-3-3-3-3-3-3-3-3-3-3-3-3-3-3-3-3-|
      Are you up for, are you up for    this?
                                     (Well are you up for, are you up for)

Guitar 1
eb| |---------------------------------|---------------------------------|
Bb| |---------------------------------|---------------------------------|
Gb| |-2-2-2-2-2-2-2-2-2-2-2-2-2-2-2-2-|---------------------------------|
Db| |-2-2-2-2-2-2-2-2-2-2-2-2-2-2-2-2-|-----------------------------0---|
Ab| |-0-0-0-0-0-0-0-0-0-0-0-0-0-0-0-0-|-x---5-----x-5-x-x-x-5b------0---|
Db| |---------------------------------|-3---------3---3-3-3---------0---|
      Are you up for, are you up for    this?                           |
                                   (Well are you up for, are you up for)|
                                                                        |
                                                                        |
Guitar 2                                                                |
eb| |---------------------------------|---------------------------------|
Bb| |---------------------------------|---------------------------------|
Gb| |-2-2-2-2-2-2-2-2-2-2-2-2-2-2-2-2-|---------------------------------|
Db| |-2-2-2-2-2-2-2-2-2-2-2-2-2-2-2-2-|-3---3-----3---3-3-3-3-------0---|
Ab| |-0-0-0-0-0-0-0-0-0-0-0-0-0-0-0-0-|-3---3-----3---3-3-3-3-------0---|
Db| |---------------------------------|-3---3-----3---3-3-3-3-------0---|

Verse 


Guitar 1
eb| |---------------------------------|---------------------------------|
Bb| |---------------------------------|---------------------------------|
Gb| |-5-5-5-5-5-5-5-5-5-5-5-5-5-5-5-5-|-4-4-4-4-4-4-4-4-4-4-4-4-4-4-4-4-|
Db| |-5-5-5-5-5-5-5-5-5-5-5-5-5-5-5-5-|-5-5-5-5-5-5-5-5-5-5-5-5-5-5-5-5-|
Ab| |---------------------------------|---------------------------------|
Db| |---------------------------------|---------------------------------|
PM:   . . . . . . . . . . . . . . . .   . . . . . . . . . . . . . . . .
      This is quick but not quite pain -less it's, perched on your arm  
                                                  (Perched on your arm) 
Guitar 2                                                                
eb| |---------------------------------|---------------------------------|
Bb| |---------------------------------|---------------------------------|
Gb| |---------------------------------|---------------------------------|
Db| |---------------------------------|---------5-5-5-5-5-5-5-5-5-5-5-5-|
Ab| |---------------------------------|---------5-5-5-5-5-5-5-5-5-5-5-5-|
Db| |---------------------------------|---------5-5-5-5-5-5-5-5-5-5-5-5-|
PM:                                             . . . . . . . . . . . .

Guitar 1
eb| |---------------------------------|---------------------------------|
Bb| |---------------------------------|---------------------------------|
Gb| |-2-2-2-------2-2-2-------2-2-----|---------------------------------|
Db| |-2-2-2-3-3-3-2-2-2-3-3-3-2-2-3-3-|-5-5-5-5-5-5-5-5-5-5-5-5-5-5-5-5-|
Ab| |-0-0-0-3-3-3-0-0-0-3-3-3-0-0-3-3-|-5-5-5-5-5-5-5-5-5-5-5-5-5-5-5-5-|
Db| |-------3-3-3-------3-3-3-----3-3-|-5-5-5-5-5-5-5-5-5-5-5-5-5-5-5-5-|
PM:   . . . . . . . . . . . . . . . .   . . . . . . . . . . . . . . . .
      Tacky and irrelevant                  Permanent reminder that, oh 
                                (So what?)                              
Guitar 2                                                                
eb| |---------------------------------|---------------------------------|
Bb| |---------------------------------|---------------------------------|
Gb| |-----------------------------5/7-|---------------------------------|
Db| |-----------------------------x-x-|---------------------------------|
Ab| |-----------------------------3/5-|---------------------------------|
Db| |---------------------------------|---------------------------------|

Guitar 1
eb| |---------------------------------|---------------------------------|
Bb| |---------------------------------|---------------------------------|
Gb| |-2-2-2-------2-2-2-------2-2-----|---------------------------------|
Db| |-2-2-2-3-3-3-2-2-2-3-3-3-2-2-3-3-|-5-5-5-5-5-5-5-5-5-5-5-5-5-5-5-5-|
Ab| |-0-0-0-3-3-3-0-0-0-3-3-3-0-0-3-3-|-5-5-5-5-5-5-5-5-5-5-5-5-5-5-5-5-|
Db| |-------3-3-3-------3-3-3-----3-3-|-5-5-5-5-5-5-5-5-5-5-5-5-5-5-5-5-|
PM:   . . . . . . . . . . . . . . . .   . . . . . . . . . . . . . . . .
      Christ       We're studied                            Dragged you 
           (I study)                   (Up nightly)                     
                                                                        
Guitar 2                                                                
eb| |---------------------------------|---------------------------------|
Bb| |---------------------------------|---------------------------------|
Gb| |---------------------------------|---------------------------------|
Db| |141514121512--15----15--1415--15-|141514121512--15----15--1415--15-|
Ab| |------------15--1514--12----12---|------------15--1514--12----12---|
Db| |---------------------------------|---------------------------------|
PM:  . . . . . . . . . . . . . . . .   . . . . . . . . . . . . . . . . 

Guitar 1
eb| |---------------------------------|---------------------------------|
Bb| |---------------------------------|---------------------------------|
Gb| |-2-2-2-------2-2-2-------2-2-----|---------------------------------|
Db| |-2-2-2-3-3-3-2-2-2-3-3-3-2-2-3-3-|-5-5-5-5-5-5-5-5-5-5-5-5---------|
Ab| |-0-0-0-3-3-3-0-0-0-3-3-3-0-0-3-3-|-5-5-5-5-5-5-5-5-5-5-5-5-x-5-x-5-|
Db| |-------3-3-3-------3-3-3-----3-3-|-5-5-5-5-5-5-5-5-5-5-5-5-3---3---|
PM:   . . . . . . . . . . . . . . . .   . . . . . . . . . . . . 
      Out  Into the streets  Before you buckle at your knees            
                                                  (Buckle at your knees)
                                                                        
Guitar 2                                                                
eb| |---------------------------------|---------------------------------|
Bb| |---------------------------------|---------------------------------|
Gb| |---------------------------------|---------------------------------|
Db| |141514121512--15----15--1415--15-|141514121512--15----15-----------|
Ab| |------------15--1514--12----12---|------------15--1514--12---------|
Db| |---------------------------------|---------------------------------|
PM:  . . . . . . . . . . . . . . . .   . . . . . . . . . . . .
 
Pre-Chorus


Guitar 1
eb| |---------------------------------|---------------------------------|
Bb| |---------------------------------|---------------------------------|
Gb| |14141414141414141212121212121212-|---------------------------------|
Db| |-x-x-x-x-x-x-x-x-x-x-x-x-x-x-x-x-|---------------------------------|
Ab| |12121212121212121010101010101010-|-x---5-----x-5-x-x-x-5-----x-5-x-|
Db| |---------------------------------|-3---------3---3-3-3-------3---3-|
          "What's it feel like to be a  ghost?"                         
                                                (Louder now, louder now)
                                                                        
Guitar 2                                                                
eb| |---------------------------------|---------------------------------|
Bb| |---------------------------------|---------------------------------|
Gb| |-2-2-2-2-2-2-2-2-2-2-2-2-2-2-2-2-|---------------------------------|
Db| |-2-2-2-2-2-2-2-2-2-2-2-2-2-2-2-2-|-3---3-----3---3-3-3-3-----3---3-|
Ab| |-0-0-0-0-0-0-0-0-0-0-0-0-0-0-0-0-|-3---3-----3---3-3-3-3-----3---3-|
Db| |---------------------------------|-3---3-----3---3-3-3-3-----3---3-|

Guitar 1
eb| |---------------------------------|---------------------------------|
Bb| |---------------------------------|---------------------------------|
Gb| |14141414141414141212121212121212-|---------------------------------|
Db| |-x-x-x-x-x-x-x-x-x-x-x-x-x-x-x-x-|-----------------------------0---|
Ab| |12121212121212121010101010101010-|-x---5-----x-5-x-x-x-5b------0---|
Db| |---------------------------------|-3---------3---3-3-3---------0---|
          "What's it feel like to be a  ghost?"                         
                                                      (Now...)          
                                                                        
Guitar 2                                                                
eb| |---------------------------------|---------------------------------|
Bb| |---------------------------------|---------------------------------|
Gb| |-2-2-2-2-2-2-2-2-2-2-2-2-2-2-2-2-|---------------------------------|
Db| |-2-2-2-2-2-2-2-2-2-2-2-2-2-2-2-2-|-3---3-----3---3-3-3-3-------0---|
Ab| |-0-0-0-0-0-0-0-0-0-0-0-0-0-0-0-0-|-3---3-----3---3-3-3-3-------0---|
Db| |---------------------------------|-3---3-----3---3-3-3-3-------0---|

 Chorus


Guitar 1 & 2
eb| |---------------------------------|---------------------------------|
Bb| |---------------------------------|---------------------------------|
Gb| |-2-2-2-2-2-2-2-2-2-2-2-2-2-2-2-2-|---------------------------------|
Db| |-2-2-2-2-2-2-2-2-2-2-2-2-2-2-2-2-|-3-3-3-3-3-3-3-3-3-3-3-3-3-3-3-3-|
Ab| |-0-0-0-0-0-0-0-0-0-0-0-0-0-0-0-0-|-3-3-3-3-3-3-3-3-3-3-3-3-3-3-3-3-|
Db| |---------------------------------|-3-3-3-3-3-3-3-3-3-3-3-3-3-3-3-3-|
      Are you up for, are you up for    this?
                                     (Well are you up for, are you up for)

Guitar 1
eb| |---------------------------------|---------------------------------|
Bb| |---------------------------------|---------------------------------|
Gb| |-2-2-2-2-2-2-2-2-2-2-2-2-2-2-2-2-|---------------------------------|
Db| |-2-2-2-2-2-2-2-2-2-2-2-2-2-2-2-2-|---------------------------------|
Ab| |-0-0-0-0-0-0-0-0-0-0-0-0-0-0-0-0-|-x---5-----x-5-x-x-x-5-x-x-x-5-x-|
Db| |---------------------------------|-3---------3---3-3-3---3-3-3---3-|
      Are you up for, are you up for    this?                           |
                                   (Well are you up for, are you up for)|
                                                                        |
Guitar 2                                                                |
eb| |---------------------------------|---------------------------------|
Bb| |---------------------------------|---------------------------------|
Gb| |-2-2-2-2-2-2-2-2-2-2-2-2-2-2-2-2-|---------------------------------|
Db| |-2-2-2-2-2-2-2-2-2-2-2-2-2-2-2-2-|-3--(3)----3---3-3-3---3-3-3---3-|
Ab| |-0-0-0-0-0-0-0-0-0-0-0-0-0-0-0-0-|-3--(3)----3---3-3-3---3-3-3---3-|
Db| |---------------------------------|-3--(3)----3---3-3-3---3-3-3---3-|


Bridge

Guitar 1
eb| |---------------------------------|-x-------------------------------|
Bb| |---------------------------------|-5~------------------------------|
Gb| |---------------------------------|-5~------------------------------|
Db| |-----------0~--------------------|-5~------------------------------|
Ab| |-x-x-5-x-x-0~--------------------|-3~------------------------------|
Db| |-3-3---3-3-0~--------------------|-x-------------------------------|
                                                                        
Guitar 2                                                                
eb| |---------------------------------|---------------------------------|
Bb| |---------------------------------|---------------------------------|
Gb| |---------------------------------|---------------------------------|
Db| |-3-3---3-3-0---------------------|---------------------------------|
Ab| |-3-3---3-3-0---------------------|---------------------------------|
Db| |-3-3---3-3-0---------------------|---------------------------------|

Guitar 1
eb| |-------------------------3-------|---------------------------------|
Bb| |---------------------------1-0-1-|---------------------------------|
Gb| |-----------------------0---------|---------------------------------|
Db| |---------------------------------|---------------------------------|
Ab| |---------------------------------|---------------------------------|
Db| |---------------------------------|---------------------------------|

Guitar 1
eb| |-x-------------------------------|-x-------------------------------|
Bb| |-5~-(5)--(5)--(5)----------------|-5~------------------------------|
Gb| |-5~------------------------------|-5~------------------------------|
Db| |-5~------------------------------|-5~------------------------------|
Ab| |-3~------------------------------|-3~------------------------------|
Db| |-x-------------------------------|-x-------------------------------|
                               I said,  So   look   close   -ly   there 
                                                                        
Guitar 2                                                                
eb| |---------------------------------|---------------------------------|
Bb| |---------------------------------|-5-5-5-5-5-5-5-5-5-5-5-5-5-5-5-5-|
Gb| |---------------------------------|---------------------------------|
Db| |---------------------------------|---------------------------------|
Ab| |---------------------------------|---------------------------------|
Db| |---------------------------------|---------------------------------|

Guitar 1
eb| |---------------------------------|---------------------------------|
Bb| |---------------------------------|---------------------------------|
Gb| |---------------------------------|---------------------------------|
Db| |---------------------------------|---------------------------------|
Ab| |---------------------------------|---------------------------------|
Db| |---------------------------------|---------------------------------|
      might      be       some -thing    you    like        What was is 
                                                                        
Guitar 2                                                                
eb| |-----------------------------3-3-|-----------------------------3-3-|
Bb| |-5-5-5-5-5-5-5-5-5-5-5-5-5-5-----|-5-5-5-5-5-5-5-5-5-5-5-5-5-5-----|
Gb| |---------------------------------|---------------------------------|
Db| |---------------------------------|---------------------------------|
Ab| |---------------------------------|---------------------------------|
Db| |---------------------------------|---------------------------------|

Guitar 1
eb| |-x-------------------------------|-3~------------------------------|
Bb| |-5~------------------------------|-5~------------------------------|
Gb| |-5~------------------------------|-5~------------------------------|
Db| |-5~------------------------------|-3~------------------------------|
Ab| |-3~------------------------------|-3~------------------------------|
Db| |-x-------------------------------|-x-------------------------------|
      Like?                             Look so close it's been months  
                        (Oh, and I...)                                  
                                                                        
Guitar 2                                                                
eb| |---------------------------------|---------------------------------|
Bb| |-5-5-5-5-5-5-5-5-5-5-5-5-5-5-5-5-|-5-5-5-5-5-5-5-5-5-5-5-5-5-5-6-6-|
Gb| |---------------------------------|---------------------------------|
Db| |---------------------------------|---------------------------------|
Ab| |---------------------------------|---------------------------------|
Db| |---------------------------------|---------------------------------|

Guitar 1
eb| |---------------------------------|---------------------------------|
Bb| |---------------------------------|---------------------------------|
Gb| |---------------------------------|---------------------------------|
Db| |---------------------------------|---------------------------------|
Ab| |---------------------------------|---------------------------------|
Db| |---------------------------------|---------------------------------|
      Who      knows      if    I                         Will get this 
                                                                        
Guitar 2                                                                
eb| |---------------------------------|---------------------------------|
Bb| |-3-3-3-3-3-3-3-3-3-3-3-3-3-3/5-5-|-5-5-5-5-5-5-5-5-5-5-5-5-5-5-6-6-|
Gb| |---------------------------------|---------------------------------|
Db| |---------------------------------|---------------------------------|
Ab| |---------------------------------|---------------------------------|
Db| |---------------------------------|---------------------------------|

Guitar 1
eb| |-x-------------------------------|-3~------------------------------|
Bb| |-5~------------------------------|-5~------------------------------|
Gb| |-5~------------------------------|-5~------------------------------|
Db| |-5~------------------------------|-3~------------------------------|
Ab| |-3~------------------------------|-3~------------------------------|
Db| |-x-------------------------------|-x-------------------------------|
      Right...                          Look      close    -ly    there 
                        (Oh, and I...)                                  
                                                                        
Guitar 2                                                                
eb| |---------------------------------|---------------------------------|
Bb| |---------------------------------|-5-5-5-5-5-5-5-5-5-5-5-5-5-5-6-6-|
Gb| |-5-5-5-5-5-5-5-5-5-5-5-5-5-5-5-5-|---------------------------------|
Db| |---------------------------------|---------------------------------|
Ab| |---------------------------------|---------------------------------|
Db| |---------------------------------|---------------------------------|

Guitar 1
eb| |---------------------------------|---------------------------------|
Bb| |---------------------------------|---------------------------------|
Gb| |---------------------------------|---------------------------------|
Db| |---------------------------------|---------------------------------|
Ab| |---------------------------------|---------------------------------|
Db| |---------------------------------|---------------------------------|
      might      be       some -thing    you    like        What was is 
                                                                        
Guitar 2                                                                
eb| |---------------------------------|---------------------------------|
Bb| |-3-3-3-3-3-3-3-3-3-3-3-3-3-3/5-5-|-5-5-5-5-5-5-5-5-5-5-5-5-5-5-6-6-|
Gb| |---------------------------------|---------------------------------|
Db| |---------------------------------|---------------------------------|
Ab| |---------------------------------|---------------------------------|
Db| |---------------------------------|---------------------------------|

Guitar 1
eb| |---------------------------------|---------------------------------|
Bb| |---------------------------------|---------------------------------|
Gb| |-5-5-5-5-7-7-7-7-9-9-9-910101010-|-9-9-9-9101010101212121213131313-|
Db| |-x-x-x-x-x-x-x-x-x-x-x-x-x-x-x-x-|-x-x-x-x-x-x-x-x-x-x-x-x-x-x-x-x-|
Ab| |-3-3-3-3-5-5-5-5-7-7-7-7-8-8-8-8-|-7-7-7-7-8-8-8-81010101012121212-|
Db| |---------------------------------|---------------------------------|
      Like?                                                             
                                                                        
Guitar 2                                                                
eb| |---------------------------------|---------------------------------|
Bb| |-5-5-5-5-5-5-5-5-5-5-5-5-5-5-5-5-|-5-5-5-5-5-5-5-5-5-5-5-5-5-5-5-5-|
Gb| |---------------------------------|---------------------------------|
Db| |---------------------------------|---------------------------------|
Ab| |---------------------------------|---------------------------------|
Db| |---------------------------------|---------------------------------|

 Interlude

Guitar 1
eb| |---------------------------------|---------------------------------|
Bb| |---------------------------------|---------------------------------|
Gb| |---------------------------------|---------------------------------|
Db| |---------------------------------|-----------------------------0---|
Ab| |-x--10-----x10-x-x-x10-----x10-x-|-x--10-----x10-x-x-x10-------0---|
Db| |-7---------7---7-7-7-------7---7-|-7---------7---7-7-7---------0---|


Pre-Chorus


Guitar 1
eb| |---------------------------------|---------------------------------|
Bb| |---------------------------------|---------------------------------|
Gb| |14141414141414141212121212121212-|---------------------------------|
Db| |-x-x-x-x-x-x-x-x-x-x-x-x-x-x-x-x-|---------------------------------|
Ab| |12121212121212121010101010101010-|-x---5-----x-5-x-x-x-5-----x-5-x-|
Db| |---------------------------------|-3---------3---3-3-3-------3---3-|
          "What's it feel like to be a  ghost?"                         
                                                (Louder now, louder now)
                                                                        
Guitar 2                                                                
eb| |---------------------------------|---------------------------------|
Bb| |---------------------------------|---------------------------------|
Gb| |-2-2-2-2-2-2-2-2-2-2-2-2-2-2-2-2-|---------------------------------|
Db| |-2-2-2-2-2-2-2-2-2-2-2-2-2-2-2-2-|-3---3-----3---3-3-3-3-----3---3-|
Ab| |-0-0-0-0-0-0-0-0-0-0-0-0-0-0-0-0-|-3---3-----3---3-3-3-3-----3---3-|
Db| |---------------------------------|-3---3-----3---3-3-3-3-----3---3-|

Guitar 1
eb| |---------------------------------|---------------------------------|
Bb| |---------------------------------|---------------------------------|
Gb| |14141414141414141212121212121212-|---------------------------------|
Db| |-x-x-x-x-x-x-x-x-x-x-x-x-x-x-x-x-|-----------------------------0---|
Ab| |12121212121212121010101010101010-|-x---5-----x-5-x-x-x-5b------0---|
Db| |---------------------------------|-3---------3---3-3-3---------0---|
          "What's it feel like to be a  ghost?"                         
                                                      (Now...)          
                                                                        
Guitar 2                                                                
eb| |---------------------------------|---------------------------------|
Bb| |---------------------------------|---------------------------------|
Gb| |-2-2-2-2-2-2-2-2-2-2-2-2-2-2-2-2-|---------------------------------|
Db| |-2-2-2-2-2-2-2-2-2-2-2-2-2-2-2-2-|-3---3-----3---3-3-3-3-------0---|
Ab| |-0-0-0-0-0-0-0-0-0-0-0-0-0-0-0-0-|-3---3-----3---3-3-3-3-------0---|
Db| |---------------------------------|-3---3-----3---3-3-3-3-------0---|

 
Chorus

Guitar 1 & 2
eb| |---------------------------------|---------------------------------|
Bb| |---------------------------------|---------------------------------|
Gb| |-2-2-2-2-2-2-2-2-2-2-2-2-2-2-2-2-|---------------------------------|
Db| |-2-2-2-2-2-2-2-2-2-2-2-2-2-2-2-2-|-3-3-3-3-3-3-3-3-3-3-3-3-3-3-3-3-|
Ab| |-0-0-0-0-0-0-0-0-0-0-0-0-0-0-0-0-|-3-3-3-3-3-3-3-3-3-3-3-3-3-3-3-3-|
Db| |---------------------------------|-3-3-3-3-3-3-3-3-3-3-3-3-3-3-3-3-|
           Are you up for, are you up for    this?
                                     (Well are you up for, are you up for)
Guitar 1 & 2
eb| |---------------------------------|---------------------------------|
Bb| |---------------------------------|---------------------------------|
Gb| |-2-2-2-2-2-2-2-2-2-2-2-2-2-2-2-2-|---------------------------------|
Db| |-2-2-2-2-2-2-2-2-2-2-2-2-2-2-2-2-|-3-3-3-3-3-3-3-3-3-3-3-3-----0---|
Ab| |-0-0-0-0-0-0-0-0-0-0-0-0-0-0-0-0-|-3-3-3-3-3-3-3-3-3-3-3-3-----0---|
Db| |---------------------------------|-3-3-3-3-3-3-3-3-3-3-3-3-----0---|
           Are you up for, are you up for    this?
                                     (Well are you up for, are you up for)

Outro

Guitar 1
e| |---------------------------------|---------------------------------|
B| |---------------------------------|---------------------------------|
G| |---------------------------------|---------------------------------|
D| |---------------------------------|-7~------------------------------|
A| |-x--10-----x10-x-x-x10-----x10-x-|-7~------------------------------|
E| |-7---------7---7-7-7-------7---7-|-7~------------------------------|
                                      (Add A Delay Effect Sounds Awsome) 
                                                                            
| /  slide up
| \  slide down
| h  hammer-on
| p  pull-off
| ~  vibrato
| +  harmonic
| x  Mute note
==============================================================

            
            
Suggest correction
Creating personal tab
Creating personal tab
You can edit any tab online and save it as your Personal.

You can edit, replace or remove any tab part or add personal notes – all changes will be seen only by you.

Personal tabs can be accessed anytime from any device, even offline.
Learn more »
comments
print report bad tab
7 comments total. Showing first comments.
0 reply
UGROQFAN 122 Oct 06, 2006 03:01 PM

Awsome tab it's PERFECT

0 reply
laughcrylivedie 75 Oct 28, 2006 08:53 PM

i agree

0 reply
z3r0element07 602 Nov 16, 2006 12:53 PM

Thanks guys because this moron copied exactly from my album tab.

guest
You may want to rate the tab now too:
select rating
Wanna post a correction for this tab? Suggest correction