Oops, an error
Loading. Please wait.

Whats It Feel Like To Be A Ghost tab

version 2
version 2

Whole song

Interactive

25,357 views 12 this week
16 commentsread comments
1 2 3 4 5
x 18
add to favorites
×
Save as Personal and add changes to this tab that will be seen only by you. Learn more ›
×
You can save this tab as Personal to edit and correct it or add notes. All changes will be seen only by you. Learn more »
launch autoscroll
font size
0
reset
how to read this tab
guitar tuner
edit
Autoscroll
slow
fast
+/-
esc
set tempo
stop
    Hey everybody, I didn't think any of the other versions of this song were that 
so I decided to post my own. I'd like to dedicate parts of the tab to John Seibel, who has me 
guitar alot better.

Plz rate and tell me what you think.

Song: What's It Feel Like To Be A Ghost?
Artist: Taking Back Sunday
Tuning: Drop D

--Legend--
/= slide up
\= slide down
h= hammer on
p= pull off
~= let note ring
*= palm mute
b= bend note
x= mute string
--Legend--

Intro
E]---------------------------------------------------------]
B]---------------------------------------------------------]
G]---------------------------------------------------------]
D]----5~-----5-------5~----5-------------------------------]
A]--------------------------------5~----5-------5~----5----]
D]--7------7---7-7-7-----7---7--3-----3---3-3-3-----3---3--]

E]-------------------------------------------------------]
B]-------------------------------------------------------]
G]-------------------------------------------------------]
D]----5~-----5-------5~----5------------------------0~---]
A]--------------------------------5~----5-------5b--0~---]
D]--7------7---7-7-7-----7---7--3-----3---3-3-3-----0~---]

E]---------------------------------------------------------]
B]---------------------------------------------------------]
G]---------------------------------------------------------]
D]----5~-----5-------5~----5-------------------------------]
A]--------------------------------5~----5-------5~----5----]
D]--7------7---7-7-7-----7---7--3-----3---3-3-3-----3---3--]

E]--------------------------------------------------------]
B]--------------------------------------------------------]
G]--------------------------------------------------------]
D]----5~-----5-------5~----5-----------------------3--0~--]
A]--------------------------------5~----5-------5--3--0~--]
D]--7------7---7-7-7-----7---7--3-----3---3-3-3----3--0~--]

Verse
E]-----------------------------------------------------------------]
B]-----------------------------------------------------------------]
G]-2-2-2-------2-2-2-------2-2-------------------------------------]
D]-2-2-2-3-3-3-2-2-2-3-3-3-2-2-3-3-5-5-5-5-5-5-5-5-5-5-5-5-5-5-5-5-] X3
A]-0-0-0-3-3-3-0-0-0-3-3-3-0-0-3-3-5-5-5-5-5-5-5-5-5-5-5-5-5-5-5-5-]
D]-------3-3-3-------3-3-3-----3-3-5-5-5-5-5-5-5-5-5-5-5-5-5-5-5-5-]
  ****************************************************************

         Gradually Release The Palm Muting
E]-----------------------------------------------------------------]
B]-----------------------------------------------------------------]
G]-2-2-2-------2-2-2-------2-2-------------------------------------]
D]-2-2-2-3-3-3-2-2-2-3-3-3-2-2-3-3-5-5-5-5-5-5-5-5-5-5-5-5-5-5-5-5-]
A]-0-0-0-3-3-3-0-0-0-3-3-3-0-0-3-3-5-5-5-5-5-5-5-5-5-5-5-5-5-5-5-5-]
D]-------3-3-3-------3-3-3-----3-3-5-5-5-5-5-5-5-5-5-5-5-5-5-5-5-5-]
  ******************************************

E]-------------]
B]-------------]
G]-------------]
D]-------------]
A]-----5---5~--]
D]---3---3-----]

Chorus
E]------------------------------------------]
B]------------------------------------------]
G]-13----\12--------------------------------]
D]--x-X8-\-x-X8-----------------------------]
A]-12----\10-------5~----5-------5~----5----]
D]---------------3-----3---3-3-3-----3---3--]

E]-----------------------------------------]
B]-----------------------------------------]
G]-13----\12-------------------------------]
D]--x-X8-\-x-X8----------------------3-0~--]
A]-12----\10-------5~----5-------5~--3-0~--]
D]---------------3-----3---3-3-3-----3-0~--]

E]------------------------------------------]
B]------------------------------------------]
G]-13----\12--------------------------------]
D]--x-X8-\-x-X8-----------------------------]
A]-12----\10-------5~----5-------5~----5----]
D]---------------3-----3---3-3-3-----3---3--]

E]-----------------------------------------]
B]-----------------------------------------]
G]-13----\12-------------------------------]
D]--x-X8-\-x-X8----------------------3-0~--]
A]-12----\10-------5~----5-------5~--3-0~--]
D]---------------3-----3---3-3-3-----3-0~--]

Interlude
E]-----------------------------------------------------------------]
B]-----------------------------------------------------------------]
G]-5-5-5-5-5-5-5-5-5-5-5-5-5-5-5-5-4-4-4-4-4-4-4-4-4-4-4-4-4-4-4-4-]
D]-5-5-5-5-5-5-5-5-5-5-5-5-5-5-5-5-5-5-5-5-5-5-5-5-5-5-5-5-5-5-5-5-]
A]-----------------------------------------------------------------]
D]-----------------------------------------------------------------]
   ***************************************************************

E]--------------------]
B]--------------------]
G]--------------------]
D]--5555555555555555--]
A]--5555555555555555--]
D]--5555555555555555--]
    ****************
Verse
E]-----------------------------------------------------------------]
B]-----------------------------------------------------------------]
G]-2-2-2-------2-2-2-------2-2-------------------------------------]
D]-2-2-2-3-3-3-2-2-2-3-3-3-2-2-3-3-5-5-5-5-5-5-5-5-5-5-5-5-5-5-5-5-] X3
A]-0-0-0-3-3-3-0-0-0-3-3-3-0-0-3-3-5-5-5-5-5-5-5-5-5-5-5-5-5-5-5-5-]
D]-------3-3-3-------3-3-3-----3-3-5-5-5-5-5-5-5-5-5-5-5-5-5-5-5-5-]
  ****************************************************************

         Gradually Release The Palm Muting
E]-----------------------------------------------------------------]
B]-----------------------------------------------------------------]
G]-2-2-2-------2-2-2-------2-2-------------------------------------]
D]-2-2-2-3-3-3-2-2-2-3-3-3-2-2-3-3-5-5-5-5-5-5-5-5-5-5-5-5-5-5-5-5-]
A]-0-0-0-3-3-3-0-0-0-3-3-3-0-0-3-3-5-5-5-5-5-5-5-5-5-5-5-5-5-5-5-5-]
D]-------3-3-3-------3-3-3-----3-3-5-5-5-5-5-5-5-5-5-5-5-5-5-5-5-5-]
  ******************************************

E]-------------]
B]-------------]
G]-------------]
D]-------------]
A]-----5---5~--]
D]---3---3-----]

Chorus
E]------------------------------------------]
B]------------------------------------------]
G]-13----\12--------------------------------]
D]--x-X8-\-x-X8-----------------------------]
A]-12----\10-------5~----5-------5~----5----]
D]---------------3-----3---3-3-3-----3---3--]

E]-----------------------------------------]
B]-----------------------------------------]
G]-13----\12-------------------------------]
D]--x-X8-\-x-X8----------------------3-0~--]
A]-12----\10-------5~----5-------5~--3-0~--]
D]---------------3-----3---3-3-3-----3-0~--]

E]------------------------------------------]
B]------------------------------------------]
G]-13----\12--------------------------------]
D]--x-X8-\-x-X8-----------------------------]
A]-12----\10-------5~----5-------5~----5----]
D]---------------3-----3---3-3-3-----3---3--]

E]-----------------------------------------]
B]-----------------------------------------]
G]-13----\12-------------------------------]
D]--x-X8-\-x-X8----------------------3-0~--]
A]-12----\10-------5~----5-------5~--3-0~--]
D]---------------3-----3---3-3-3-----3-0~--]

Thingy
E]------------3------------------------------------]
B]--5~----------1-0h1p0---------5~-------------5~--]
G]--5~------0-------------------5~-------------5~--]
D]--5~--------------------------5~-------------5~--]
A]--3~--------------------------3~-------------3~--]
D]-------------------------------------------------]

E]-----------------------------------------------------------------]
B]-----------------------------------------------------------------]
G]-5-5-5-5-7-7-7-7-9-9-9-910101010-9-9-9-9101010101212121213131313-]
D]-x-x-x-x-x-x-x-x-x-x-x-x-x-x-x-x-x-x-x-x-x-x-x-x-x-x-x-x-x-x-x-x-]
A]-3-3-3-3-5-5-5-5-7-7-7-7-8-8-8-8-7-7-7-7-8-8-8-81010101012121212-]
D]-----------------------------------------------------------------]

E]-------------------------------------------------------]
B]-------------------------------------------------------]
G]-------------------------------------------------------]
D]----5~-----5-------5~----5------5-----5-------5b---0~--]
A]---------------------------------------------------0~--]
D]--7------7---7-7-7-----7---7--7-----7---7-7-7------0~--]

Chorus
E]------------------------------------------]
B]------------------------------------------]
G]-13----\12--------------------------------]
D]--x-X8-\-x-X8-----------------------------]
A]-12----\10-------5~----5-------5~----5----]
D]---------------3-----3---3-3-3-----3---3--]

E]-----------------------------------------]
B]-----------------------------------------]
G]-13----\12-------------------------------]
D]--x-X8-\-x-X8----------------------3-0~--]
A]-12----\10-------5~----5-------5~--3-0~--]
D]---------------3-----3---3-3-3-----3-0~--]

E]------------------------------------------]
B]------------------------------------------]
G]-13----\12--------------------------------]
D]--x-X8-\-x-X8-----------------------------]
A]-12----\10-------5~----5-------5~----5----]
D]---------------3-----3---3-3-3-----3---3--]

E]-----------------------------------------]
B]-----------------------------------------]
G]-13----\12-------------------------------]
D]--x-X8-\-x-X8----------------------3-0~--]
A]-12----\10-------5~----5-------5~--3-0~--]
D]---------------3-----3---3-3-3-----3-0~--]

Outro
E]-------------------------------]
B]-------------------------------]
G]-------------------------------]
D]----5~----5-------5~---5----7--]
A]----------------------------7--]
A]--7-----7---7-7-7----7---7--7--]


    There ya have it. Enjoi

            
            
Suggest correction
Creating personal tab
Creating personal tab
You can edit any tab online and save it as your Personal.

You can edit, replace or remove any tab part or add personal notes – all changes will be seen only by you.

Personal tabs can be accessed anytime from any device, even offline.
Learn more »
comments
print report bad tab
16 comments total. Showing first comments.
0 reply
Blinkman5 500 May 14, 2007 04:15 AM

Not 100% but still good. I'd give it four and a half, but I can't

0 reply
petrifiedmonkey 144 May 14, 2007 02:28 PM

I think I see where I messed up. CORRECTION!!!! In the chorus you go 3 0 instead of 0 3.

0 reply
Teen Spirit 666 May 22, 2007 07:18 AM

great tab though; still 5 stars.

guest
You may want to rate the tab now too:
select rating
Wanna post a correction for this tab? Suggest correction