Oops, an error
Loading. Please wait.

Whats It Feel Like To Be A Ghost tab

version 3
version 3

Whole song

Interactive

4,793 views 1 this week
4 commentsread comments
1 2 3 4 5
x 5
add to favorites
×
Save as Personal and add changes to this tab that will be seen only by you. Learn more ›
×
You can save this tab as Personal to edit and correct it or add notes. All changes will be seen only by you. Learn more »
launch autoscroll
font size
0
reset
how to read this tab
guitar tuner
edit
Autoscroll
slow
fast
+/-
esc
set tempo
stop
Author
Difficulty
Hi I dont usually tab but all the tabs here are very innacurate (not saying mine is 
but its better)

The original is in drop D, but i have tabbed in standard tuning coz its simpler.

Tabbed by; GuitarMatt91
Email: matt_funnell@hotmail.co.uk

Tuning:EADGBE

Intro: This may have slight variations which are easy to work out.

e|--------------------------------------------------------------------------|
B|--------------------------------------------------------------------------|
G|-------------------------------------------------------------------x4-----|
D|-----4-------4-------4-------4--------------------------------------------|
A|------------------------------------------4------4-------4---4------------|
E|--4-------4----4-4-4-------4----4------0-------0---0-0-0---0---0----------|


Verse 1:Rhythm plays this 4 times

e|--------------------------------------------------------------------------|
B|--------------------------------------------------------------------------|
G|--------------------------------------------------------------------------|
D|--6-6-6-2-2-2-6-6-6-2-2-2-6-6-2-2-4-4-4-4-4-4-4-4-4-4-4-4-4-4-4-4---------|
A|--6-6-6-2-2-2-6-6-6-2-2-2-6-6-2-2-4-4-4-4-4-4-4-4-4-4-4-4-4-4-4-4---------|
E|--4-4-4-0-0-0-4-4-4-0-0-0-4-4-0-0-2-2-2-2-2-2-2-2-2-2-2-2-2-2-2-2---------|

On the fourth time the rhythm plays the G# to E powerchords and then this:

e|--------------------------------------------------------------------------|
B|--------------------------------------------------------------------------|
G|--------------------------------------------------------------------------|
D|-4-4-4-4-4-4-4-4-4-4-4----------------------------------------------------|
A|-4-4-4-4-4-4-4-4-4-4-4---4---4--------------------------------------------|
E|-2-2-2-2-2-2-2-2-2-2-2-0---0----------------------------------------------|

Halfway through the first verse lead comes in with this, played 3 and a half times:

e|--------------------------------------------------------------------------|
B|--4-5-4---5-----5-----5-----5---------------------------------------------|
G|--------6---6-4---6-4---6-4---6-4-----------------------------------------|
D|--------------------------------------------------------------------------|
A|--------------------------------------------------------------------------|
E|--------------------------------------------------------------------------|

Chorus:

e|---------------------------------------------------------------------------|
B|---------------------------------------------------------------------------|
G|-13-13-13-13-13-13-13-13-13-13-13-13-13-13-13-13---------------------------|x2
D|-13-13-13-13-13-13-13-13-13-13-13-13-13-13-13-13---------------------------|
A|-11-11-11-11-11-11-11-11-11-11-11-11-11-11-11-11---4----4-------4---4------|
E|-------------------------------------------------0----0---0-0-0---0---0----|

e|--------------------------------------------------------------------------|
B|--------------------------------------------------------------------------|
G|--------------------------------------------------------------------------|
D|-6-6-6-6-6-6-6-6-6-6-6-6-6-6-6-6-2-2-2-2-2-2-2-2-2-2-2-2-2-2-2-2----------|
A|-6-6-6-6-6-6-6-6-6-6-6-6-6-6-6-6-2-2-2-2-2-2-2-2-2-2-2-2-2-2-2-2----------|
E|-4-4-4-4-4-4-4-4-4-4-4-4-4-4-4-4-0-0-0-0-0-0-0-0-0-0-0-0-0-0-0-0----------|

e|--------------------------------------------------------------------------|
B|--------------------------------------------------------------------------|
G|--------------------------------------------------------------------------|
D|-6-6-6-6-6-6-6-6-6-6-6-6-6-6-6-6---------------------2--------------------|
A|-6-6-6-6-6-6-6-6-6-6-6-6-6-6-6-6----4-----4-------4--2--------------------|
E|-4-4-4-4-4-4-4-4-4-4-4-4-4-4-4-4--0-----0---0-0-0----0--------------------|

Verse 2: The same as verse 1, but the first time play this: (then play the verse 1 bit three times)

e|--------------------------------------------------------------------------|
B|--------------------------------------------------------------------------|
G|-4-4-4-4-4-4-4-4-4-4-4-4-4-4-4-4-4-4-4-4-4-4-4-4-4-4-4-4-4-4-4-4----------|
D|-4-4-4-4-4-4-4-4-4-4-4-4-4-4-4-4-4-4-4-4-4-4-4-4-4-4-4-4-4-4-4-4----------|
A|-2-2-2-2-2-2-2-2-2-2-2-2-2-2-2-2-x-x-x-x-x-x-x-x-x-x-x-x-x-x-x-x----------|
E|---------------------------------4-4-4-4-4-4-4-4-4-4-4-4-4-4-4-4----------|

Chorus

Interlude: Not much guitar happening here, but the lead plays variations using these notes:

e|--------------------------------------------------------------------------|
B|-4-5-7--------------------------------------------------------------------|
G|--------6-4-3-------------------------------------------------------------|
D|--------------7-----------------------------------------------------------|
A|--------------------------------------------------------------------------|
E|--------------------------------------------------------------------------|

Link after Interlude (each octave played four times):

e|--------------------------------------------------------------------------|
B|--------------------------------------------------------------------------|
G|-4-6-8-9---11-13--15--17--------------------------------------------------|
D|-x-x-x-x---x--x---x----x------------------------------------------------2-|
A|-2-4-6-7---9--11--13--15--------4----4-------4----4------4---4-------4--2-|
E|-----------------------------4-----4---4-4-4----4---4--4---4---4-4-4----0-|


Chorus x2

            
            
Suggest correction
Creating personal tab
Creating personal tab
You can edit any tab online and save it as your Personal.

You can edit, replace or remove any tab part or add personal notes – all changes will be seen only by you.

Personal tabs can be accessed anytime from any device, even offline.
Learn more »
comments
print report bad tab
4 comments total. Showing first comments.
-1 reply
stradivari310 190 Aug 16, 2007 02:08 PM

isn't this in drop C# like the rest of the album?

-1 reply
Alexishxc1337 368 Aug 16, 2007 03:44 PM

Yeah, i refer to it as Db, the whole Louder Now album is that way.

The chord that leads from the intro riff into the part where the full band comes in is an open Db chord, so playing along with the song won't work in E standard.

-1 reply
athsmador 279 Oct 03, 2007 03:42 PM

the tuning could be off, it makes the most sense to play it like this


best tab of this song right here

guest
You may want to rate the tab now too:
select rating
Wanna post a correction for this tab? Suggest correction