Oops, an error
Loading. Please wait.

You Cant Look Back Tab

67 views 42 this week
no commentswrite comment
1 2 3 4 5
2 more votes to show rating
add to favorites
launch autoscroll
font size
0
reset
how to read this tab
guitar tuner
Autoscroll
slow
fast
+/-
esc
set tempo
stop
Help us to improve Ultimate-Guitar.com Take our survey!
×
Author
Difficulty
intermediate
About this tab version
Contains the previously untabbed lead guitar parts of You Cant Look Back. Was this info helpful? Yes No
Tabbed 28 November, 2016
This one is a lot of fun to play. Comment with any questions or corrections!
Based off John's performances in a number of live videos. Adam plays the verse, chorus,
and bridge chords
transposed to capo 5.

[Intro]

e|----------------------------|--------------------------|-----------------------|-------------------------|
B|----------------------------|--------------------------|-----------------------|-------------------------|
G|----------------------------|--------------------------|--------------------13-|-------------------------|
D|--x-x-9h11-11-11-11-11-11-9-|--11-11-11-11-11-11-11-11-|--9h11-11-11-11-11--14-|--18-18-18-18-18-19-18---|
A|--x-x-0----0--0--0--0--0--0-|--11-11-11-11-11-11-11-11-|--0----0--0--0--0---0--|--16-16-16-16-16-16-16---|
E|----------------------------|--9--9--9--9--9--9--9--9--|-----------------------|--16-16-16-16-16-16-16---|

[Verse]

e|----------------------------|--------------------------|-----------------------|-------------------------|
B|----------------------------|--------------------------|-----------------------|-------------------------|
G|----------------------------|--------------------------|--------------------13-|-------------------------|
D|--x-x-9h11-11-11-11-11-11-9-|--11-11-11-11-11-11-11-11-|--9h11-11-11-11-11--14-|--18-18-18-18-18-19-18---|
A|--x-x-0----0--0--0--0--0--0-|--11-11-11-11-11-11-11-11-|--0----0--0--0--0---0--|--16-16-16-16-16-16-16---|
E|----------------------------|--9--9--9--9--9--9--9--9--|-----------------------|--16-16-16-16-16-16-16---|
                                                                                                          X 2
e|---------------------------|----------------------|-----------------|------------------------------------|
B|---------------------------|----------------------|-----------------|------------------------------------|
G|------------------------13-|--9-9-9-9-9-9-9-9-----|--8-8-8-8-8-8-8-8|--8-8-8-8-8-8-8-8-------------------|
D|--x-x-9h11-11-11-11-11--14-|--9-9-9-9-9-9-9-9-x-x-|--9-9-9-9-9-9-9-9|--9-9-9-9-9-9-9-9-------------------|
A|--x-x-0----0--0--0--0---0--|--7-7-7-7-7-7-7-7-x-x-|--9-9-9-9-9-9-9-9|--9-9-9-9-9-9-9-9-------------------|
E|---------------------------|------------------x-x-|--7-7-7-7-7-7-7-7|--7-7-7-7-7-7-7-7-------------------|

After second iteration
e|------------------|-----------------------|
B|------------------|-----------------------|
G|--6-6-6-6-6-6-6-6-|--6-6-6-6-6-6-6-6------|
D|--7-7-7-7-7-7-7-7-|--7-7-7-7-7-7-7-7------|
A|--7-7-7-7-7-7-7-7-|--7-7-7-7-7-7-7-7------|
E|--5-5-5-5-5-5-5-5-|--5-5-5-5-5-5-5-5------|

[Pre-Chorus]

e|--------------------|------------------|
B|--------------------|------------------|
G|--------------------|------------------| X 3
D|------6--------6----|----2----4-2------|
A|----4---4----0---0--|------------------|
E|--------------------|--0---0------0----|

e|--------------------|------------------|-------------------|
B|--------------------|------------------|-------------------|
G|--------------------|--4-4-4-4-4-4-4-4-|--4-4-4-4-4-4-4-4--|
D|------6--------6----|--4-4-4-4-4-4-4-4-|--4-4-4-4-4-4-4-4--|
A|----4---4----0---0--|--2-2-2-2-2-2-2-2-|--2-2-2-2-2-2-2-2--|
E|--------------------|------------------|-------------------|

[Chorus]

e|--------------------|------------------|------------------|----------------------|
B|----5-5-5-5-5-5-5-5-|------------------|------------------|--4-4-4-4-4-4-4-4-----|
G|----6-6-6-6-6-6-6-6-|--6-6-6-6-6-6-6-6-|--1-1-1-1-1-1-1-1-|--4-4-4-4-4-4-4-4-----| X 3
D|----6-6-6-6-6-6-6-6-|--7-7-7-7-7-7-7-7-|--2-2-2-2-2-2-2-2-|--4-4-4-4-4-4-4-4-----|
A|----4-4-4-4-4-4-4-4-|--7-7-7-7-7-7-7-7-|--2-2-2-2-2-2-2-2-|--2-2-2-2-2-2-2-2-----|
E|--------------------|--5-5-5-5-5-5-5-5-|------------------|----------------------|


e|--------------------|------------------|----------------------|
B|----5-5-5-5-5-5-5-5-|------------------|--4-4-4-4-4-4-4-4-----|
G|----6-6-6-6-6-6-6-6-|--6-6-6-6-6-6-6-6-|--4-4-4-4-4-4-4-4-----|
D|----6-6-6-6-6-6-6-6-|--7-7-7-7-7-7-7-7-|--4-4-4-4-4-4-4-4-----|
A|----4-4-4-4-4-4-4-4-|--7-7-7-7-7-7-7-7-|--2-2-2-2-2-2-2-2-----|
E|--------------------|--5-5-5-5-5-5-5-5-|----------------------|


e|----------------------------|--------------------------|-----------------------|-------------------------|
B|----------------------------|--------------------------|-----------------------|-------------------------|
G|----------------------------|--------------------------|--------------------13-|-------------------------|
D|--x-x-9h11-11-11-11-11-11-9-|--11-11-11-11-11-11-11-11-|--9h11-11-11-11-11--14-|--18-18-18-18-18-19-18---|
A|--x-x-0----0--0--0--0--0--0-|--11-11-11-11-11-11-11-11-|--0----0--0--0--0---0--|--16-16-16-16-16-16-16---|
E|----------------------------|--9--9--9--9--9--9--9--9--|-----------------------|--16-16-16-16-16-16-16---|
                                                                                                          X 2
e|---------------------------|----------------------|-----------------|------------------------------------|
B|---------------------------|----------------------|-----------------|------------------------------------|
G|------------------------13-|--9-9-9-9-9-9-9-9-----|--8-8-8-8-8-8-8-8|--8-8-8-8-8-8-8-8-------------------|
D|--x-x-9h11-11-11-11-11--14-|--9-9-9-9-9-9-9-9-x-x-|--9-9-9-9-9-9-9-9|--9-9-9-9-9-9-9-9-------------------|
A|--x-x-0----0--0--0--0---0--|--7-7-7-7-7-7-7-7-x-x-|--9-9-9-9-9-9-9-9|--9-9-9-9-9-9-9-9-------------------|
E|---------------------------|------------------x-x-|--7-7-7-7-7-7-7-7|--7-7-7-7-7-7-7-7-------------------|


e|------------------|--0>-|
B|------------------|--0>-|
G|--6-6-6-6-6-6-6-6-|--0>-|
D|--7-7-7-7-7-7-7-7-|--0>-|
A|--7-7-7-7-7-7-7-7-|--0>-|
E|--5-5-5-5-5-5-5-5-|--0>-|

[Chorus]

e|------------------|------------------|------------------|----------------------|
B|--5-5-5-5-5-5-5-5-|------------------|------------------|--4-4-4-4-4-4-4-4-----|
G|--6-6-6-6-6-6-6-6-|--6-6-6-6-6-6-6-6-|--1-1-1-1-1-1-1-1-|--4-4-4-4-4-4-4-4-----| X 3
D|--6-6-6-6-6-6-6-6-|--7-7-7-7-7-7-7-7-|--2-2-2-2-2-2-2-2-|--4-4-4-4-4-4-4-4-----|
A|--4-4-4-4-4-4-4-4-|--7-7-7-7-7-7-7-7-|--2-2-2-2-2-2-2-2-|--2-2-2-2-2-2-2-2-----|
E|------------------|--5-5-5-5-5-5-5-5-|------------------|----------------------|


e|------------------|------------------|----------------------|
B|--5-5-5-5-5-5-5-5-|------------------|--4-4-4-4-4-4-4-4-----|
G|--6-6-6-6-6-6-6-6-|--6-6-6-6-6-6-6-6-|--4-4-4-4-4-4-4-4-----|
D|--6-6-6-6-6-6-6-6-|--7-7-7-7-7-7-7-7-|--4-4-4-4-4-4-4-4-----|
A|--4-4-4-4-4-4-4-4-|--7-7-7-7-7-7-7-7-|--2-2-2-2-2-2-2-2-----|
E|------------------|--5-5-5-5-5-5-5-5-|----------------------|

[Solo Lead]

e|------------------|---------------------|------------------|------------------|------------------|
B|------------------|---------------------|------------------|------------------|--7-7-7-7-7-7-7-7-|
G|------------------|---------------------|------------------|--9-9-9-9-9-9-9-9-|------------------|
D|--9-9-9-9-9-9-9-9-|-9-9-9-9-11-11-11-11-|--6-6-6-6-6-6-6-6-|------------------|------------------|
A|------------------|---------------------|------------------|------------------|------------------|
E|------------------|---------------------|------------------|------------------|------------------|

e|-----------------|
B|--7b8r7----------|
G|---------6-------|
D|-----------6-9~--|
A|-----------------|
E|-----------------|
[Solo Rhythm]

Adam plays these chords transposed to capo 5, but this is the standard version.

e|------------------|------------------|------------------|----------------------|
B|--5-5-5-5-5-5-5-5-|------------------|------------------|--4-4-4-4-4-4-4-4-----|
G|--6-6-6-6-6-6-6-6-|--6-6-6-6-6-6-6-6-|--1-1-1-1-1-1-1-1-|--4-4-4-4-4-4-4-4-----| X 3
D|--6-6-6-6-6-6-6-6-|--7-7-7-7-7-7-7-7-|--2-2-2-2-2-2-2-2-|--4-4-4-4-4-4-4-4-----|
A|--4-4-4-4-4-4-4-4-|--7-7-7-7-7-7-7-7-|--2-2-2-2-2-2-2-2-|--2-2-2-2-2-2-2-2-----|
E|------------------|--5-5-5-5-5-5-5-5-|------------------|----------------------|


[Outro]

e|------------------|--------------------|--------------------|--9-9-9-9-7-7-7---|
B|--9-9-9-9-9-9-9-9-|--------------------|--x-x-x-x-x-x-x-x-x-|--x-x-x-x-x-x-x---|
G|--x-x-x-x-x-x-x-x-|--11-11-11-11-9-9-9-|--8-8-8-8-8-8-8-8-8-|--x-x-x-x-8-8-8---|
D|--9-9-9-9-9-9-9-9-|--9-9-9-9-9-9-9-9-9-|--9-9-9-9-9-9-9-9-9-|--x-x-x-x-9-9-9---|
A|--7-7-7-7-7-7-7-7-|--7-7-7-7-7-7-7-7-7-|--9-9-9-9-9-9-9-9-9-|--9-9-9-9-9-9-9---|
E|------------------|--------------------|--7-7-7-7-7-7-7-7-7-|--7-7-7-7-7-7-7---|

                                                First Two Endings                    X 3
e|------------------|-----------------------|---------------------------|
B|--5-5-5-5-5-5-5-5-|--5-5-5-5--------------|---------------------------|
G|--6-6-6-6-6-6-6-6-|--4-4-4h6--------9--x-x|-8-8-8-8-8-8---------------|
D|--6-6-6-6-6-6-6-6-|--6-6-6-6--/9h11-11-x-x|-9-9-9-9-9-9---------------|
A|--4-4-4-4-4-4-4-4-|--4-4-4-4--------------|-9-9-9-9-9-9---------------|
E|------------------|-----------------------|-7-7-7-7-7-7---------------|

Third Time
e|-----------|----------|
B|-----------|----------|
G|-------9~--|-------9~-| X1
D|--9h11-11~-|--9h11-11~|
A|-----------|----------|
E|-----------|----------|


e|------------------|----------------|------------------|--------------------|
B|--9-9-9-9-9-9-9-9-|--9-9-9-9-9-9-9-|------------------|--------------------|
G|--9-9-9-9-9-9-9-9-|--9-9-9-9-9-9-9-|--8-8-8-8-8-8-8-8-|-8-8-8-8-8-8-8-8----|
D|--9-9-9-9-9-9-9-9-|--9-9-9-9-9-9-9-|--9-9-9-9-9-9-9-9-|-9-9-9-9-9-9-9-9----|
A|--7-7-7-7-7-7-7-7-|--7-7-7-7-7-7-7-|--9-9-9-9-9-9-9-9-|-9-9-9-9-9-9-9-9----|
E|------------------|----------------|--7-7-7-7-7-7-7-7-|-7-7-7-7-7-7-7-7----|
                                                                                X2
e|------------------|----------------|------------------|--------------------|
B|--5-5-5-5-5-5-5-5-|--5-5-5-5-5-5-5-|------------------|--------------------|
G|--6-6-6-6-6-6-6-6-|--6-6-6-6-6-6-6-|--8-8-8-8-8-8-8-8-|--8-8-8-8-8-8-8-8---|
D|--6-6-6-6-6-6-6-6-|--6-6-6-6-6-6-6-|--9-9-9-9-9-9-9-9-|--9-9-9-9-9-9-9-9---|
A|--4-4-4-4-4-4-4-4-|--4-4-4-4-4-4-4-|--9-9-9-9-9-9-9-9-|--9-9-9-9-9-9-9-9---|
E|------------------|----------------|--7-7-7-7-7-7-7-7-|--7-7-7-7-7-7-7-7---|


e|------------------|------------------|--0>--|
B|------------------|------------------|--0>--|
G|--8-8-8-8-8-8-8-8-|--8-8-8-8-8-8-8-8-|--1>--|
D|--9-9-9-9-9-9-9-9-|--9-9-9-9-9-9-9-9-|--2>--|
A|--9-9-9-9-9-9-9-9-|--9-9-9-9-9-9-9-9-|--2>--|
E|--7-7-7-7-7-7-7-7-|--7-7-7-7-7-7-7-7-|--0>--|


Lyrics

I was living day to day
As the meetings they would suggest
Sitting pretty having one foot out that door
No, I didn't know how to act
Started running and I didn't look back
Still feel the same way
Still don't know where I'm going

Oh, then you let me in
I don't know how you did it other than you did
Cut your wrist and said "come get you some"
It only works if you don't look down
Bought the ticket, now you're on the track
You can keep it but you can't look back
You can keep it but you can't look back
You can keep it but you can't look back

You can keep it but you can't look back

I didn't know what I was looking for
And come to think I wasn't looking at all
I'm not the same man, not since you came in
I'm going to get you if it takes me all night long

I'm going to get you if it takes me all night long
I'm going to get you if it takes me all night long
I'm going to get you if it takes me all night long
I'm not the same man, not since you came in
I'm going to get you if it take me all night
I'm going to get you if it takes me all night long

I was nearly four states away
Mamma calling from the other end
Someday a woman's gonna need you most the time, yeah
Lord, I didn't know how to act
I started running and I didn't look back
Still feel the same way
Still don't know where I'm going

But now I'm in it until the bitter end
You're gonna do me then you do me like that
Cut your wrist and said "come get you some"
It only works if you don't look down
Bought the ticket, now you're on the track
You can keep it but you can't look back
You can keep it but you can't look back
You can keep it but you can't look back

You can keep it but you can't look back

I didn't know what I was looking for (can't look back)
And come to think I wasn't looking at all (can't look back)
I'm not the same man, not since you came in
I'm going to get you if it takes me all night long
I'm going to get you if it takes me all night long

I'm going to get you if it takes me all night
I'm going to get you if it takes me all night long
I'm going to get you if it takes me all night long

Started running in
You cut your wrist
You let me in

Don't know how you did it other than you did
I was there beside myself in my own skin
Unfamiliar, I tried it on and liked the fit
I don't know how you did it other than you did
I'm going to get you if it takes me all night long

I don't know how you did it other than you did
I was there beside myself in my own skin
Unfamiliar, I tried it on and liked the fit
I don't know how you did it other than you did

Don't know how you did it other than you did
I was there beside myself in my own skin
Unfamiliar, I tried it on and liked the fit
I don't know how you did it other than you did
Don't know how you did it other than you did

************************************

| x   Dead note
| h   Hammer-on
| b   Bend
| r   Release
| /   Slide up
| ~   Vibrato
| >   Accented Note

************************************
Suggest correction
Give kudos to tab author, rate the tab!
1 2 3 4 5
comments
print report bad tab
guest
You may want to rate the tab now too:
select rating
Wanna post a correction for this tab? Suggest correction