Oops, an error
Loading. Please wait.

Youre So Last Summer Tab

version 1
version 1

Whole song

Interactive

55,428 views 48 this week
12 commentsread comments
1 2 3 4 5
x 24
add to favorites
launch autoscroll
font size
0
reset
how to read this tab
guitar tuner
×
Best way to learn
"Youre So Last Summer"
Autoscroll
slow
fast
+/-
esc
set tempo
stop
Author
Taking Back Sunday
You're So Last Summer
tabbed by Dean

Most of the song has one guitar playing through one channel and the other one 
playing through the other.  So if you listen to one at a time it's a lot easier to 
figure out some of the parts.


standard tuning
x = palm mute
* = harmonic
h = hammer on
p = pull off


INTRO x4
e|------------------------|
B|------------------------|
G|------------------------|
D|--666--777777777777-----|
A|--444--555555555555--0--|
E|------------------------|
    xxx  xxxxxxxxxxxx  x


VERSE
e|------------------------------|
B|------------------------------|
G|------------------------------|
D|--666--777777777777----- x2 --|
A|--444--555555555555--0--------|
E|------------------------------|
    xxx  xxxxxxxxxxxx  x
She said don't
don't let it go to your head

FILL
e|-------------12-------------------12p0---|
B|--10h12----------------10h12-------------|
G|---------11------11-----------11---------|
D|-----------------------------------------|
A|-----------------------------------------|
E|-----------------------------------------|

--------------------------------------|
--------------------------------------|
--------------------------------------|
--------------------------------------|
--9999999999999999--5555555555555555--|
--7777777777777777--3333333333333333--|
  xxxxxxxxxxxxxxxx  xxxxxxxxxxxxxxxx
Boys like you are a dime a dozen
boys like you are a dime a dozen


VERSE
e|------------------------------|
B|------------------------------|
G|------------------------------|
D|--666--777777777777----- x2 --|
A|--444--555555555555--0--------|
E|------------------------------|
    xxx  xxxxxxxxxxxx  x
She said
You're a touch, overrated

FILL
e|-------------12-------------------12p0---|
B|--10h12----------------10h12-------------|
G|---------11------11-----------11---------|
D|-----------------------------------------|
A|-----------------------------------------|
E|-----------------------------------------|

-------------------------------------------|
-------------------------------------------|
-------------------------------------------|
--------------------------------5-5-5-5-5--|
--9999999999999999--55555555555-5-5-5-5-5--|
--7777777777777777--33333333333-3-3-3-3-3--|
  xxxxxxxxxxxxxxxx  xxxxxxxxxxx
You're lush, and I hate it
but these grass stains on my knees
they won't mean a thing


CHORUS x2
e|--------------------------------------|
B|--------------------------------------|
G|--7-----------------4-----------------|
D|--7-(x16)--4--------4-(x16)--5--------|
A|--5--------4-(x16)--2--------5-(x16)--|
E|-----------2-----------------3--------|
and All I need to know
is that I'm somethin that you're missin
maybe I should hate you for this
never really did ever quite get that far
maybe I should hate you for this
never really did ever quite get that

During the chorus there's another guitar playing some stuff.  I didn't tab it out 
exactly but play something like this and it sounds good enough.
e|-------------------------------------------------------------|
B|-------------------------------------------------------------|
G|--7------6666-44-66-----------44-66-7-4----4------6666-7777--|
D|--7-(x8)-xxxx-xx-xx----4------xx-xx-x-x----4-(x8)-xxxx-xxxx--|
A|--5------4444-22-44----4-(x4)-22-44-5-2----2------4444-5555--|
E|-----------------------2-------------------------------------|

--------------------|
--------------------|
---------6666-7777--|
--5------xxxx-xxxx--|
--5-(x8)-4444-5555--|
--3-----------------|


VERSE
e|------------------------------|
B|------------------------------|
G|------------------------------|
D|--666--777777777777----- x2 --|
A|--444--555555555555--0--------|
E|------------------------------|
    xxx  xxxxxxxxxxxx  x
I never lied to you

--------------------------------------|
--------------------------------------|
--------------------------------------|
--------------------------------------|
--9999999999999999--5555555555555555--|
--7777777777777777--3333333333333333--|
  xxxxxxxxxxxxxxxx  xxxxxxxxxxxxxxxx
unless I had to I'll do what I got to
unless I had to I'll do what I got to
the truth


VERSE
e|------------------------------|
B|------------------------------|
G|------------------------------|
D|--666--777777777777----- x2 --|
A|--444--555555555555--0--------|
E|------------------------------|
    xxx  xxxxxxxxxxxx  x
is you could slit my throat

-------------------------------------------|
-------------------------------------------|
-------------------------------------------|
--------------------------------5-5-5-5-5--|
--9999999999999999--55555555555-5-5-5-5-5--|
--7777777777777777--33333333333-3-3-3-3-3--|
  xxxxxxxxxxxxxxxx  xxxxxxxxxxx
and with my one last gasping breath
I'd apologize for bleeding on your shirt


CHORUS x2 (have the other guitar play the other stuff too)
e|--------------------------------------|
B|--------------------------------------|
G|--7-----------------4-----------------|
D|--7-(x16)--4--------4-(x16)--5--------|
A|--5--------4-(x16)--2--------5-(x16)--|
E|-----------2-----------------3--------|
and all I need to know
is that I'm somethin that your missin
maybe I should hate you for this
never really did ever quite get that far
maybe I should hate you for this
never really did ever quite get that


INTRO (slightly modified)x2
e|--------------------------|
B|--------------------------|
G|--------------------------|
D|--666-------777777777-5*--|
A|--444--000--555555555-----|
E|--------------------------|
    xxx  xxx  xxxxxxxx

FILL
e|---------------------------------12-0--|
B|--10h12---------------10-12------------|
G|--------11-9-11-------------11-9-------|
D|---------------------------------------|
A|---------------------------------------|
E|---------------------------------------|


BRIDGE
e|----------------------------------------|
B|----------------------------------------|
G|---------------------44444--44444--444--|
D|--44444--44444--444--44444--44444--444--|
A|--44444--44444--444--22222--22222--222--|
E|--22222--22222--222---------------------|
Cause I'm a wishful thinker with the worst intentions,
and this will be the last chance you'll get to drop my name


INTRO (slightly modified)x2
e|--------------------------|
B|--------------------------|
G|--------------------------|
D|--666-------777777777-5*--|
A|--444--000--555555555-----|
E|--------------------------|
    xxx  xxx  xxxxxxxx

FILL
e|---------------------------------12-0--|
B|--10h12---------------10-12------------|
G|--------11-9-11-------------11-9-------|
D|---------------------------------------|
A|---------------------------------------|
E|---------------------------------------|


BRIDGE
e|----------------------------------------|
B|----------------------------------------|
G|---------------------44444--44444--444--|
D|--44444--44444--444--44444--44444--444--|
A|--44444--44444--444--22222--22222--222--|
E|--22222--22222--222---------------------|
Cause I'm a wishful thinker with the worst intentions,
and this will be the last chance you'll get to drop my name


CHORUS x4
e|------------------------------------------|
B|------------------------------------------|
G|--77777777--------------------------------|
D|--77777777--77777777--99999999--55555555--|
A|--55555555--77777777--99999999--55555555--|
E|------------55555555--77777777--33333333--|
If I'm just bad news,
then you're a liar (x8)


OUTRO x4
e|-------------------|
B|-------------------|
G|--7----------------|
D|--x-- (let ring) --|
A|--5----------------|
E|-------------------|

FILL x4
I don't really know what's going on here but it sounds something like this:
e|------5-----5-----5----|
B|--------5-----5-----5--|
G|----5-----5-----5------|
D|--7--------------------|
A|-----------------------|
E|-----------------------|
Just pluck the notes in that chord and it sounds fine.

END ON
e|-----|
B|-----|
G|--7--|
D|--7--|
A|--5--|
E|-----|
Suggest correction
comments
print report bad tab
12 comments total. Showing first comments.
0 reply
lemnefresh 50 Dec 16, 2002 07:00 PM

the fill on the first verse should be:
e|-------------------------------------
B|-10h12------------------10----17-----
G|--------11--9--11----11----11-----9--
D|-------------------------------------
A|-------------------------------------
E|-------------------------------------

0 reply
boywithguitar 10 Mar 04, 2003 07:00 PM

hey man this tab is good. Taking Back Sunday is a rad band. I wish someone would tab out there song "eleven." I think there are harmonics at the biggining and it would be a challenge. If you could do it you would be a god in my books.

+1 reply
Fretallica 10 Apr 25, 2003 08:00 PM

good but, for some reason yoru fill sounds so off

guest
You may want to rate the tab now too:
select rating
Wanna post a correction for this tab? Suggest correction