Oops, an error
Loading. Please wait.

Youre So Last Summer tab

version 2
version 2

Whole song

Interactive

4,050 views 3 this week
1 commentread comment
1 2 3 4 5
x 3
add to favorites
×
Save as Personal and add changes to this tab that will be seen only by you. Learn more ›
×
You can save this tab as Personal to edit and correct it or add notes. All changes will be seen only by you. Learn more »
launch autoscroll
font size
0
reset
how to read this tab
guitar tuner
edit
Autoscroll
slow
fast
+/-
esc
set tempo
stop
Taking Back Sunday
You're So Last Summer
Tabbed by Dean
lyongowao@juno.com
standard tuning
x = palm mute
( ) = ghost note


INTRO x4
e|------------------------|
B|------------------------|
G|--666--777777777777-----|
D|--666--777777777777-----|
A|--444--555555555555--0--|
E|------------------------|
    xxx  xxxxxxxxxxxx  x


VERSE
e|------------------------------
B|------------------------------
G|--666--777777777777-----------
D|--666--777777777777----- x2 --
A|--444--555555555555--0--------
E|------------------------------
    xxx  xxxxxxxxxxxx  x
She said don't
don't let it go to your head

FILL
e|--------------------------------------|
B|--10h12------------------10----17--9--|
G|---------11--9--11----11----11--------|
D|--------------------------------------|
A|--------------------------------------|
E|--------------------------------------|

--------------------------------------|
--------------------------------------|
--------------------------------------|
--9999999999999999--5555555555555555--|
--9999999999999999--5555555555555555--|
--7777777777777777--3333333333333333--|
  xxxxxxxxxxxxxxxx  xxxxxxxxxxxxxxxx
Boys like you are a dime a dozen
boys like you are a dime a dozen


VERSE
e|------------------------------
B|------------------------------
G|--666--777777777777-----------
D|--666--777777777777----- x2 --
A|--444--555555555555--0--------
E|------------------------------
    xxx  xxxxxxxxxxxx  x
She said
You're a touch, overrated

FILL
e|--------------------------------------|
B|--10h12------------------10----17-----|
G|---------11--9--11----11----11-----9--|
D|--------------------------------------|
A|--------------------------------------|
E|--------------------------------------|

-------------------------------------------|
-------------------------------------------|
-------------------------------------------|
--9999999999999999--55555555555-5-5-5-5-5--|
--9999999999999999--55555555555-5-5-5-5-5--|
--7777777777777777--33333333333-3-3-3-3-3--|
  xxxxxxxxxxxxxxxx  xxxxxxxxxxx
You're lush, and I hate it
but these grass stains on my knees 
they won't mean a thing


CHORUS x2
e|-------------------------------------------------|
B|-------------------------------------------------|
G|--7----------------------------------------------|
D|--7-- (x16) --7-----------9----------5-----------|
A|--5-----------7-- (x16) --9-- (x16)--5-- (x16) --|
E|--------------5-----------7----------3-----------|
and All I need to know
is that I'm somethin that your missin
maybe I should hate you for this
never really did ever quite get that far
maybe I should hate you for this
never really did ever quite get that


VERSE
e|------------------------------
B|------------------------------
G|--666--777777777777-----------
D|--666--777777777777----- x2 --
A|--444--555555555555--0--------
E|------------------------------
    xxx  xxxxxxxxxxxx  x
I never lied to you

--------------------------------------|
--------------------------------------|
--------------------------------------|
--9999999999999999--5555555555555555--|
--9999999999999999--5555555555555555--|
--7777777777777777--3333333333333333--|
  xxxxxxxxxxxxxxxx  xxxxxxxxxxxxxxxx
unless I had to I'll do what I got to
unless I had to I'll do what I got to
the truth


VERSE
e|------------------------------
B|------------------------------
G|--666--777777777777-----------
D|--666--777777777777----- x2 --
A|--444--555555555555--0--------
E|------------------------------
    xxx  xxxxxxxxxxxx  x
is you could slit my throat

FILL
e|-----------|
B|-----------|
G|--(7)------|
D|------(7)--|
A|-----------|
E|-----------|

-------------------------------------------|
-------------------------------------------|
-------------------------------------------|
--9999999999999999--55555555555-5-5-5-5-5--|
--9999999999999999--55555555555-5-5-5-5-5--|
--7777777777777777--33333333333-3-3-3-3-3--|
  xxxxxxxxxxxxxxxx  xxxxxxxxxxx
and with my one last gasping breath
I'd apologize for bleeding on your shirt


CHORUS x2
e|-------------------------------------------------|
B|-------------------------------------------------|
G|--7----------------------------------------------|
D|--7-- (x16) --7-----------9----------5-----------|
A|--5-----------7-- (x16) --9-- (x16)--5-- (x16) --|
E|--------------5-----------7----------3-----------|
and all I need to know
is that I'm somethin that your missin
maybe I should hate you for this
never really did ever quite get that far
maybe I should hate you for this
never really did ever quite get that


INTRO x2

FILL
e|-------------------------------------------|
B|-----10-------15--------10----10---17--15--|
G|--11----11--9-----11-------11----9---------|
D|-------------------------------------------|
A|-------------------------------------------|
E|-------------------------------------------|


BRIDGE
e|----------------------------------------|
B|----------------------------------------|
G|----------------------------------------|
D|--55555--55555--555--99999--99999--999--|
A|--55555--55555--555--99999--99999--999--|
E|--33333--33333--333--77777--77777--777--|
Cause I'm a wishful thinker with the worst intentions, 
and this will be the last chance you'll get to drop my name


INTRO x2

FILL
e|-------------------------------------------|
B|-----10-------15--------10----10---17--15--|
G|--11----11--9-----11-------11----9---------|
D|-------------------------------------------|
A|-------------------------------------------|
E|-------------------------------------------|


BRIDGE
e|----------------------------------------|
B|----------------------------------------|
G|----------------------------------------|
D|--55555--55555--555--99999--99999--999--|
A|--55555--55555--555--99999--99999--999--|
E|--33333--33333--333--77777--77777--777--|
Cause I'm a wishful thinker with the worst intentions, 
and this will be the last chance you'll get to drop my name


CHORUS x4
e|------------------------------------------|
B|------------------------------------------|
G|--77777777--------------------------------|
D|--77777777--77777777--99999999--55555555--|
A|--55555555--77777777--99999999--55555555--|
E|------------55555555--77777777--33333333--|
If I'm just bad news,
then you're a liar (x8)


OUTRO x4
e|-------------------|
B|-------------------|
G|--7----------------|
D|--x-- (let ring) --|
A|--5----------------|
E|-------------------|

FILL x4
e|--------------------|
B|--8h10-----8h10-----|
G|--------7--------7--|
D|--------------------|
A|--------------------|
E|--------------------|

END ON
e|-----|
B|-----|
G|--7--|
D|--7--|
A|--5--|
E|-----|

            
            
Suggest correction
Creating personal tab
Creating personal tab
You can edit any tab online and save it as your Personal.

You can edit, replace or remove any tab part or add personal notes – all changes will be seen only by you.

Personal tabs can be accessed anytime from any device, even offline.
Learn more »
Give kudos to tab author, rate the tab!
1 2 3 4 5
comments
print report bad tab
1 comment total.
0 reply
gpderek09 150 Jul 21, 2004 08:00 PM

dude u totaly riped off version one

guest
Wanna post a correction for this tab? Suggest correction