Oops, an error
Loading. Please wait.

Youre So Last Summer bass

version 3
version 3

Whole song

Interactive

7,258 views 3 this week
3 commentsread comments
1 2 3 4 5
x 5
add to favorites
×
Save as Personal and add changes to this tab that will be seen only by you. Learn more ›
×
You can save this tab as Personal to edit and correct it or add notes. All changes will be seen only by you. Learn more »
launch autoscroll
font size
0
reset
guitar tuner
edit
Autoscroll
slow
fast
+/-
esc
set tempo
stop
Author
Difficulty
Band: Taking Back Sunday
Song: You're So Last Summer
Tabber: this-hmong-dood

Tuning: Standard (E,A,D,G)

[Guitar palm mute's intro]

Verse 1
G|---------------------------------------|
D|-----------5----5-5p0------------------| x2
A|----4445555-5555-5----0----------------|
E|---------------------------------------|

G|-----------------------------332------------------|
D|--------2----2-2p0--------------32----------------|
A|----2222-2222-2-----------------------------------|
E|--------------------33333333----------------------|

Chorus
G|--------------------------|
D|--------------------------| x2
A|-5x16------2x16-----------|
E|------2x16------3x16------|

verse 2
G|---------------------------------------|
D|-----------5----5-5p0------------------| x2
A|----4445555-5555-5----0----------------|
E|---------------------------------------|

G|-----------------------------332------------------|
D|--------2----2-2p0--------------32----------------|
A|----2222-2222-2-----------------------------------|
E|--------------------33333333----------------------|

Chorus
G|--------------------------|
D|--------------------------| x2
A|-5x16------2x16-----------|
E|------2x16------3x16------|

Bridge [Play whole bridge twice through]
G|---------------------------|  
D|-------------5----5-5p0----|
A|-444-000-5555-5555-5-------|  
E|---------------------------|

G|----------------------------------|
D|----------------------------------|
A|-----------------22222-2-2-2-222--|
E|-33333-3-3-3-333------------------|

Breakdown
G|-----------------------------------------|
D|-------4-----------------0---------------| x3
A|-5-5555-5-------4--2-2222-2-------2------|
E|----------5-5555-5----------3-3333-3-----|

Outro
G|-------------------|
D|-------------------|play until end
A|-5~------2~--------|
E|-----5~------3~----|

end on 
G|-------------------|
D|-------------------|
A|-5~----------------|
E|-------------------|


            
            
Suggest correction
Creating personal tab
Creating personal tab
You can edit any tab online and save it as your Personal.

You can edit, replace or remove any tab part or add personal notes – all changes will be seen only by you.

Personal tabs can be accessed anytime from any device, even offline.
Learn more »
comments
print report bad tab
3 comments total.
0 reply
crash_course 147 Aug 31, 2006 07:14 PM

uh. great tab. i take it you mean to put paratheses around the x16 during the chorus.

0 reply
ZeroBassist 30 Oct 05, 2007 06:22 AM

Great tab..5*

0 reply
ZeroBassist 30 Oct 05, 2007 06:22 AM

Great tab..5*

guest
You may want to rate the tab now too:
select rating
Wanna post a correction for this tab? Suggest correction