Oops, an error
Loading. Please wait.

Sangre Y Sal Tab

8 views 1 this week
no commentswrite comment
1 2 3 4 5
3 more votes to show rating
add to favorites
launch autoscroll
font size
0
reset
how to read this tab
guitar tuner
×
Best way to learn
"Sangre Y Sal"
Autoscroll
slow
fast
+/-
esc
set tempo
stop
Intro: DO - MIm [x2]

DO
Oigo ruido en la calle,
MIm
oigo ruido en el corazón.
DO
Alguien dispara alguien cae,
MI
alguien que cree tener razón.

LAm                      FA
Hoy llueve sangre,mañana que lloverá?
        DO              SOL
¿Cuánto tiempo más,seguiremos escapando?

         FA              DO           SOL       RE
Y aunque se que quieres ver mi cuerpo en un ataud
       FA           DO             SOL         RE
no voy a dejar que quien ponga los clavos seas tu.

           FA              DO           SOL       RE
Vendra el sueño y aunque quieras no te dejare dormir
          FA        DO         RE
mis problemas seran pocos para ti.

[[Estribillo]]
      SOL      SIb        DO             SOL
Y a la sangre y sal y a la mierda vuestra paz
      SIb      DO      RE
solo llueve en esta ciudad.
        SOL   SIb     DO       SOL
Salud y mucho ron que corra la voz
    SIb     DO       RE
y dejad tranquilo al personal.

Puente: SOL - FA - DO - SOL - FA
        SOL - FA - DO - SOL
DO
Busco mi sombra en el suelo
MIm
se que estoy muerto y aun puedo andar
DO
cambiar los sueños por dinero
MIm
pisar cabezas solo por llegar.

LAm                      FA
Hoy llueve sangre,mañana que lloverá?
        DO                  SOL
¿Cuánto tiempo más? ¿Cuánto tiempo más?

         FA              DO           SOL       RE
Y aunque se que quieres ver mi cuerpo en un ataud
       FA           DO             SOL         RE
no voy a dejar que quien ponga los clavos seas tu.

           FA              DO           SOL       RE
Vendra el sueño y aunque quieras no te dejare dormir
          FA        DO         RE
mis problemas seran pocos para ti.

[[Estribillo]]
      SOL      SIb        DO             SOL
Y a la sangre y sal y a la mierda vuestra paz
      SIb      DO      RE
solo llueve en esta ciudad.
        SOL   SIb     DO       SOL
Salud y mucho ron que corra la voz
    SIb     DO       RE
y dejad tranquilo al personal.

Puente: SOL - FA - DO - SOL - FA
        SOL - FA - DO - SOL - FA - SOL


Punteo para el puente:

E||----------------------------------|
B||--8----------8--------8--------8--|
G||-------7--9-----7--9-----7--9-----|
D||----------------------------------|
A||----------------------------------|
E||----------------------------------|

---------------------------|
--10--------10b----10br----|
---------------------------|
---------------------------|
---------------------------|
---------------------------|

----------------------------------|
--8----------8--------8--------8--|
-------7--9-----7--9-----7--9-----|
----------------------------------|
----------------------------------|
----------------------------------|

----------------------||
--6----6----6----8----||
----------------------||
----------------------||
----------------------||
----------------------||


Por LuisMars
Suggest correction
Give kudos to tab author, rate the tab!
1 2 3 4 5
comments
print report bad tab
guest
You may want to rate the tab now too:
select rating
Wanna post a correction for this tab? Suggest correction