Oops, an error
Loading. Please wait.

Shes So High Tab

version 3
version 3
12,142 views 1 this week
1 commentread comment
1 2 3 4 5
worth learning
x 4
add to favorites
launch autoscroll
font size
0
reset
how to read this tab
guitar tuner
Tab Pro tools
  • play this tab
  • loop segment
  • change instrument
  • show fretboard
  • metronome
Autoscroll
slow
fast
+/-
esc
set tempo
stop
Contributor
Difficulty
intermediate
Heehee, fun!

Intro/Verse:            (Gtr. 1)
E|----------------|----------------|
B|------0---------|------0---2-0---|
G|----2-----2-----|--2-----------2-|
D|--2-----------2-|----------------|
A|0---------------|----------------|
E|----------------|----------------|
                  (Gtr. 2)
E|----------------|----------------|
B|----------------|----------------|
G|2-2-2-2---------|----------------|
D|--------4-4-4-4-|2-2-2-0-0-0-0-0-|
A|----------------|----------------|
E|----------------|----------------|
pm- - - - - - - -  - - - - - - - -

Pre-Chorus 1:     (Gtr. 1)
E|----------------|----------------|
B|----------------|----------------|
G|------2---1-----|----------------|
D|--2-----------0-|----------------|
A|----------------|----------------|
E|0---0-----------|----------------|
                  (Gtr. 2)
E|----------------|----------------|
B|----------------|----------------|
G|----------------|----------------|
D|2-2-2-2-2-2-2-2-|0-0-0-0-0-0-0-0-|
A|----------------|----------------|
E|----------------|----------------|
pm- - - - - - - -  - - - - - - - -

Pre-Chorus 2:     (Gtr. 1)
E|----------------|----------------|----------------|
B|----------------|----------------|----------------|
G|----------------|----------------|----------------|
D|----------------|----------------|2-2-2-2-2-2-2-2-|
A|----------------|----------------|----------------|
E|----------------|----------------|----------------|
                  (Gtr. 2)
E|----------------|----------------|----------------|
B|----------------|----------------|----------------|
G|4-4-4-4-4-4-4-4-|4-4-4-4-4-4-4-4-|4-4-4-4-4-4-4-4-|
D|2-2-2-2-2-2-2-2-|2-2-2-2-2-2-2-2-|2-2-2-2-2-2-2-2-|
A|----------------|----------------|----------------|
E|----------------|----------------|----------------|
pm- - - - - - - -  - - - - - - - -  - - - - - - - -
(I know this part is kinda wierd with three measures)

Chorus:           (Gtr. 1)
E|----------------|----------------|
B|------0---------|------0---2-0---|
G|----2-----2-----|--2-----------2-| < 2x
D|--2-----------2-|----------------|
A|0---------------|----------------|
E|----------------|----------------|

E|----------------|----------------|----------------|----------------|
B|----------------|----------------|----------------|----------------|
G|----------------|2-2-2-2-2-2-2-2-|----------------|4-4-4-4-4-4-4-4-|
D|4-4-4-4-4-4-4-4-|0-0-0-0-0-0-0-0-|2-2-2-2-2-2-2-2-|2-2-2-2-2-2-2-2-|
A|2-2-2-2-2-2-2-2-|----------------|0-0-0-0-0-0-0-0-|----------------|
E|----------------|----------------|----------------|----------------|

Solo(sorry, couldn't figure out the timing):
E|12------------------12------------------12-------------------------------|
B|---12-14b--10----------12-14b--10----------12-14b--10-------10-14/15-14--|
G|--------------12------------------11------------------10-12--------------|
D|-------------------------------------------------------------------------|
A|-------------------------------------------------------------------------|
E|-------------------------------------------------------------------------|

E|---------------17/19-17----12h14-16-14-12--------------------------------|
B|---15-17-15-14----------------------------12-10--------------------------|
G|14-----------------------------------------------------------------------|
D|-------------------------------------------------------------------------|
A|-------------------------------------------------------------------------|
E|-------------------------------------------------------------------------|

Song Order:
Intro 2x
Verse 4x
Pre-Chorus1 1x
Verse 1x
Pre-Chorus1 1x
Pre-Chorus2 1x
Chorus 4x
Intro 1x
Verse 4x
Pre-Chorus1 1x
Verse 1x
Pre-Chorus1 1x
Pre-Chorus2 1x
Chorus 4x
Solo 1x
Intro 1x
Verse 4x
Pre-Chorus1 1x
Verse 1x
Pre-Chorus1 1x
Pre-Chorus2 1x
Chorus 4x
Intro 1x

This is the second time i've had to write this tab because before my mouse went all 
and exited out.  By the way, if your nic, i did write this! Bye!
comments
print report bad tab
1 comment total.
0 reply
Dom_S wrote on April 2 2010, 03:01 pm

sorry man, but its not very good. although you have the right beat for most of the song, the notes are still wrong. and the solo is completely messed up. for the correct tabs of this song, go to version 4 at: http://www.ultimate-guitar.com/tabs/t/tal_bachman/shes_so_high_ver4_tab.htm

I want to post or [tab]
guest
You may want to rate the tab now too:
select rating
Please do not post tabs as comments. Select "correction" instead!