Oops, an error
Loading. Please wait.

Shes So High Tab

version 5
version 5
1,689 views 3 this week
no commentswrite comment
1 2 3 4 5
please rate
add to favorites
launch autoscroll
font size
0
reset
how to read this tab
guitar tuner
Autoscroll
slow
fast
+/-
esc
set tempo
stop
Help us to improve Ultimate-Guitar.com Take our survey!
×
Contributor
Difficulty
novice
*****************************************************************************
Artist : Tal Bachman
Song : Shes So High
*****************************************************************************

Tabbed By : AJRink12
EMail : rink1aj@cmich.edu

INTRO/VERSE:
Guitar 1
e|---------------------------------|
B|---------------------------------|
G|-2-2-2-2-2-2-2-2-2-2-2-2-2-2-2-2-|
D|---------4-4-4-4-2-2-2-0-0-0-0-0-|
A|---------------------------------|
E|---------------------------------|
pm . . . . . . . . . . . . . . . . 

Guitar 2
e|------7---------7-9-7------------|
B|---10---10---10-------10---------|
G|-9---------9---------------------|
D|---------------------------------|
A|---------------------------------|
E|---------------------------------|


PRE-CHORUS 1:
Guitar 1
e|-----------0~--------------------|
B|-----------3~--------------------|
G|-----1-2-1-2~--------------------|
D|---2-------0~--------------------|
A|---------------------------------|
E|-0-------------------------------|

Guitar 2
e|-----4-5-4-0~--------------------|
B|-5-5-------3~--------------------|
G|-----------2~--------------------|
D|-----------0~--------------------|
A|---------------------------------|
E|-0-------------------------------|


PRE-CHORUS 2:
Both Guitars
e|-------------------------------------------------|
B|-------------------------------------------------|
G|-2-2-2-2-2-2-2-2-1-1-1-1-1-1-1-1-1-1-1-1-1-1-1-1-|
D|-2-2-2-2-2-2-2-2-2-2-2-2-2-2-2-2-2-2-2-2-2-2-2-2-|
A|-0-0-0-0-0-0-0-0-2-2-2-2-2-2-2-2-2-2-2-2-2-2-2-2-|
E|-----------------0-0-0-0-0-0-0-0-0-0-0-0-0-0-0-0-|
***(Start palm muted and slowly release)***


CHORUS:
e|-2-2-2-2-2-5-5-5-5-5-5-5-5-5-5-5-0-0-0-0-0-0---------0------7-|
B|-3-3-3-3-3-6-6-6-6-6-6-5-5-5-5-5-0-0-0-0-0-0---OR----0------8-|
G|-4-4-4-4-4-7-7-7-7-7-7-6-6-6-6-6-1-1-1-1-1-1-INSTEAD-1-PLAY-9-|
D|-4-4-4-4-4-7-7-7-7-7-7-7-7-7-7-7-2-2-2-2-2-2---OF----2------9-|
A|-2-2-2-2-2-5-5-5-5-5-5-7-7-7-7-7-2-2-2-2-2-2---------2------7-|
E|-----------------------5-5-5-5-5-0-0-0-0-0-0---------0------0-|

CHORUS ENDING:
e|-2-2-2-2-2-5-5~-|
B|-3-3-3-3-3-6-6~-|
G|-4-4-4-4-4-7-7~-|
D|-4-4-4-4-4-7-7~-|
A|-2-2-2-2-2-5-5~-|
E|----------------|

SOLO:
|--------------------------------------------------------17^17-12-14 14^-7^-5-|
|-17-17-----17-17-----17----------------14^---15^-15-14-----------------------|
|-16^16^14--16^16^14--16^^14------14-16----14----------14---------------------|
|---------17--------16------15-17---------------------------------------------|
|-----------------------------------------------------------------------------|
|-----------------------------------------------------------------------------|
comments
We did not receive enough feedback on this tab! Please rate:
print report bad tab
1 2 3 4 5
I want to post or [tab]
guest
You may want to rate the tab now too:
select rating
Please do not post tabs as comments. Select "correction" instead!