Oops, an error
Loading. Please wait.

Shes So High tab

version 6
version 6
1,773 views 6 this week
no commentswrite comment
1 2 3 4 5
1 last vote to show rating
add to favorites
×
Save as Personal and add changes to this tab that will be seen only by you. Learn more ›
×
You can save this tab as Personal to edit and correct it or add notes. All changes will be seen only by you. Learn more »
launch autoscroll
font size
0
reset
how to read this tab
guitar tuner
edit
Autoscroll
slow
fast
+/-
esc
set tempo
stop
Author
Difficulty
I'm going to tab mostly the Lead guitar and the Fills within the chorus and 2nd verse. I 
had to learn the fills by ear i'm posting them just to make a example of what they 
could be. Please check out my youtube channel www.youtube.com/BrandonBushnell22

Standard Tuning (EADGBE)


Intro

  Lead Guitar
E|-----5------7--5--------5--7-9-7-5--|
B|--5----5----------5--5--------------|
G|------------------------------------|6x
D|------------------------------------|
A|------------------------------------|
E|------------------------------------|


2nd Guitar
E|-----------------------|
B|-----------------------|
G|--22222-22222-222-2-22-|6x
D|--------44444-222-0-00-|
A|-----------------------|
E|-----------------------|


E|-------------------2---|
B|-------------------3---|
G|--------1-2-1---2------|
D|-----2-----------------|
A|-----------------------|
E|--0--------------------|


 Lead Guitar
E|-----5------7--5--------5--7-9-7-5--|
B|--5----5----------5--5--------------|
G|------------------------------------|1x
D|------------------------------------|
A|------------------------------------|
E|------------------------------------|


E|-------------------2---|
B|-------------------3---|
G|--------1-2-1---2------|
D|-----2-----------------|
A|-----------------------|
E|--0--------------------|


 Build Up To Chorus
E|---------------------------------------|
B|---------------------------------------|
G|--44444444-----------------------------|
D|--44444444--222222222222222---xxxxxxx--|
A|--22222222--222222222222222---xxxxxxx--|
E|------------000000000000000---xxxxxxx--|
    .......   ...............


Chorus Chords & Leads Fill
E|--------------------|--------------------------------------------|
B|------------2-------|-------14--------10--------14-------10--5~--|
G|--4----7----2-------|--14B------14B--------14B------14B----------|
D|--4----7----0---2---|--------------------------------------------|
A|--2----5--------2---|--------------------------------------------|
E|----------------0---|--------------------------------------------|


Lead Guitar
E|-----5------7--5--------5--7-9-7-5-|
B|--5----5----------5--5-------------|
G|-----------------------------------|3x
D|-----------------------------------|
A|-----------------------------------|
E|-----------------------------------|


 Leads Fill
E|------------------------------|
B|--12B-12r-10-9-10-------------|
G|--------------------11-11B-9~-|
D|------------------------------|
A|------------------------------|
E|------------------------------|


E|----------------2---|
B|----------------3---|
G|--------1-2-1---2---|
D|-----2--------------|
A|--------------------|
E|--0-----------------|


Leads Fill
E|------------------------------|
B|--12B-12r-10-9-10-------------|
G|--------------------11-11B-9~-|
D|------------------------------|
A|------------------------------|
E|------------------------------|


E|----------------2---|
B|----------------3---|
G|--------1-2-1---2---|
D|-----2--------------|
A|--------------------|
E|--0-----------------|



 Build Up To Chorus
E|---------------------------------------|
B|---------------------------------------|
G|--44444444-----------------------------|
D|--44444444--222222222222222---xxxxxxx--|
A|--22222222--222222222222222---xxxxxxx--|
E|------------000000000000000---xxxxxxx--|
    .......   ...............


Chorus Chords & Leads Fill
E|--------------------|--------------------------------------------|
B|------------2-------|-------14--------10--------14-------10--5~--|
G|--4----7----2-------|--14B------14B--------14B------14B----------|
D|--4----7----0---2---|--------------------------------------------|
A|--2----5--------2---|--------------------------------------------|
E|----------------0---|--------------------------------------------|



Solo

E|-- --------------------------------------------------------------------|
B|--14--14---------------14-------------14--14------------------14h15p14~|
G|--16B-16rb-14-----16B--16br--14-------16b-16br-14-------14-16----------|
D|--------------17----------------16----------------15-17----------------|
A|-----------------------------------------------------------------------|
E|-----------------------------------------------------------------------|


E|-----------------------17B-17B~--12-14--14B-14br-12---------------|
B|-----15B-15br-14------------------------------------12B-12br-10~--|
G|--14-------------14-----------------------------------------------|
D|------------------------------------------------------------------|
A|------------------------------------------------------------------|
E|------------------------------------------------------------------|


That's it just repeat what's above the solo til end of song enjoy.

            
            
Suggest correction
Creating personal tab
Creating personal tab
You can edit any tab online and save it as your Personal.

You can edit, replace or remove any tab part or add personal notes – all changes will be seen only by you.

Personal tabs can be accessed anytime from any device, even offline.
Learn more »
Give kudos to tab author, rate the tab!
1 2 3 4 5
comments
print report bad tab
guest
You may want to rate the tab now too:
select rating
Wanna post a correction for this tab? Suggest correction