Oops, an error
Loading. Please wait.

Peeling An Orange bass

31 views 1 this week
no commentswrite comment
1 2 3 4 5
3 more votes to show rating
add to favorites
×
Save as Personal and add changes to this tab that will be seen only by you. Learn more ›
×
You can save this tab as Personal to edit and correct it or add notes. All changes will be seen only by you. Learn more »
launch autoscroll
font size
0
reset
guitar tuner
edit
Autoscroll
slow
fast
+/-
esc
set tempo
stop
Author
Difficulty
About this tab version
This is the first one on the site. Was this info helpful? Yes No
couldn't find a version of this anywhere online which is a shame, since it's such a good song. email me
at dominic.caudill1@gmail.com with any questions you have regarding this, you will have to listen to the song
for the rhythm, since its pretty complicated.

lots of measures start with pickups so just listen for the exact rhythm.

no bass in intro

[Verse]

   1  2  3   4   1   2  3   4    1  2  3    4   1    2    3   4    1  2  3   4  
G|-------4-4----|--------------|---------------|------------------|--------------|
D|------4----4--|-------6-6----|---------------|------------4-5-6-|7--7--7-6--5--|
A|-2--2---------|------6----6-5|-4--4--4--4-6-7|---7-7----7-------|--------------|
E|-------------4|--4-4---------|------4--------|--------7---------|--------------|

  1  2  3    4    1  2  3   4    1  2  3   4    
G|-------------|---------------|---------------|
D|-5-5--5-5-/7-|-/9--9--9-9-7-9|--9-9--9-9-4-4-|
A|-------------|---------------|------9--------|
E|-------------|---------------|---------------|

   1  2  3   4   1   2  3   4    1  2  3    4   1    2    3   4    1  2  3   4  
G|-------4-4----|--------------|---------------|------------------|--------------|
D|------4----4--|-------6-6----|---------------|------------4-5-6-|7--7--7-6--5--|
A|-2--2---------|------6----6-5|-4--4--4--4-6-7|---7-7----7-------|--------------|
E|-------------4|--4-4---------|------4--------|--------7---------|--------------|

  1  2  3    4    1  2  3   4    1  2  3   4    
G|-------------|---------------|---------------|
D|-5-5--5-5-/7-|-/9--9--9-9-7-9|--9-9--9-9-9/--| 
A|-------------|---------------|------9--------|
E|-------------|---------------|---------------| 


[Chorus]

G|---------------|-------------|--------------|---------------------------------|
D|---------------|-------------|--------------|---------------------------------| 
A|---------------|-------------|--------------|---------------------------------|
E|-2--2--2-2-4-5-|-5-5--5-5-/7-|/0--0--0-0--0-|-0-0-0-0-0-0-0-------------------|
                                  throw in some octave e's here if you want
G|---------------|-------------|--------------|---------------------------------|
D|---------------|-------------|--------------|---------------------------------| 
A|---------------|-------------|--------------|---------------7--6--5-----------|
E|-2--2--2-2-4-5-|-5-5--5-5-/7-|/0--0--0-0--0-|-0-0-0-0-0-0-0-------------------|


[Verse]

   1  2  3   4   1   2  3   4    1  2  3    4   1    2    3   4    1  2  3   4  
G|-------4-4----|--------------|---------------|------------------|--------------|
D|------4----4--|-------6-6----|---------------|------------4-5-6-|7--7--7-6--5--|
A|-2--2---------|------6----6-5|-4--4--4--4-6-7|---7-7----7-------|--------------|
E|-------------4|--4-4---------|------4--------|--------7---------|--------------|

  1  2  3    4    1  2  3   4    1  2  3   4    
G|-------------|---------------|---------------|
D|-5-5--5-5-/7-|-/9--9--9-9-7-9|--9-9--9-9-4-4-|
A|-------------|---------------|------9--------|
E|-------------|---------------|---------------|

   1  2  3   4   1   2  3   4    1  2  3    4   1    2    3   4    1  2  3   4  
G|-------4-4----|--------------|---------------|------------------|--------------|
D|------4----4--|-------6-6----|---------------|------------4-5-6-|7--7--7-6--5--|
A|-2--2---------|------6----6-5|-4--4--4--4-6-7|---7-7----7-------|--------------|
E|-------------4|--4-4---------|------4--------|--------7---------|--------------|

  1  2  3    4    1  2  3   4    1  2  3   4    
G|-------------|---------------|---------------|
D|-5-5--5-5-/7-|-/9--9--9-9-7-9|--9-9--9-9-9/--| 
A|-------------|---------------|------9--------|
E|-------------|---------------|---------------| 

[Chorus]

G|---------------|-------------|--------------|---------------------------------|
D|---------------|-------------|--------------|---------------------------------| 
A|---------------|-------------|--------------|---------------------------------|
E|-2--2--2-2-4-5-|-5-5--5-5-/7-|/0--0--0-0--0-|-0-0-0-0-0-0-0-------------------|

G|---------------|-------------|--------------|---------------------------------|
D|---------------|-------------|--------------|---------------------------------| 
A|---------------|-------------|--------------|---------------7--6--5-----------|
E|-2--2--2-2-4-5-|-5-5--5-5-/7-|/0--0--0-0--0-|-0-0-0-0-0-0-0-------------------|

[Bridge]                                                    These are on off-beats
                                                                  & 1& 2& 3&
G|---------------|-------------|------|-------------|--------------|-------------|
D|-------------/8|--8--6-6--6--|4-4-4-|-4-4--4------|--------------|-------------|
A|---------3-6---|-------------|------|--------6-6--|4--4--4-4-4--6|-7--9--11----|
E|-4--4--4-------|-------------|------|-------------|--------------|-------------|

G|--------------|-------------------------------------------------------------|
D|--------------|-------------------------------------------------------------|
A|-12--12--12--0|-0--12--12-12--0--12-----------------------------------------| x2
E|--------------|-------------------------------------------------------------|

[Verse]

   1  2  3   4   1   2  3   4    1  2  3    4   1    2    3   4    1  2  3   4  
G|-------4-4----|--------------|---------------|------------------|--------------|
D|------4----4--|-------6-6----|---------------|------------4-5-6-|7--7--7-6--5--|
A|-2--2---------|------6----6-5|-4--4--4--4-6-7|---7-7----7-------|--------------|
E|-------------4|--4-4---------|------4--------|--------7---------|--------------|

  1  2  3    4    1  2  3   4    1  2  3   4    
G|-------------|---------------|---------------|
D|-5-5--5-5-/7-|-/9--9--9-9-7-9|--9-9--9-9-4-4-|
A|-------------|---------------|------9--------|
E|-------------|---------------|---------------|

   1  2  3   4   1   2  3   4    1  2  3    4   1    2    3   4    1  2  3   4  
G|-------4-4----|--------------|---------------|------------------|--------------|
D|------4----4--|-------6-6----|---------------|------------4-5-6-|7--7--7-6--5--|
A|-2--2---------|------6----6-5|-4--4--4--4-6-7|---7-7----7-------|--------------|
E|-------------4|--4-4---------|------4--------|--------7---------|--------------|

  1  2  3    4    1  2  3   4    1  2  3   4    
G|-------------|---------------|---------------|
D|-5-5--5-5-/7-|-/9--9--9-9-7-9|--9-9--9-9-9/--| 
A|-------------|---------------|------9--------|
E|-------------|---------------|---------------| 

[Chorus]

G|---------------|-------------|--------------|---------------------------------|
D|---------------|-------------|--------------|---------------------------------| 
A|---------------|-------------|--------------|---------------------------------|
E|-2--2--2-2-4-5-|-5-5--5-5-/7-|/0--0--0-0--0-|-0-0-0-0-0-0-0-------------------|

G|---------------|-------------|--------------|---------------------------------|
D|---------------|-------------|--------------|---------------------------------| 
A|---------------|-------------|--------------|---------------7--6--5-----------|
E|-2--2--2-2-4-5-|-5-5--5-5-/7-|/0--0--0-0--0-|-0-0-0-0-0-0-0-------------------|


************************************
| /   Slide up
************************************

            
            
Suggest correction
Creating personal tab
Creating personal tab
You can edit any tab online and save it as your Personal.

You can edit, replace or remove any tab part or add personal notes – all changes will be seen only by you.

Personal tabs can be accessed anytime from any device, even offline.
Learn more »
Give kudos to tab author, rate the tab!
1 2 3 4 5
comments
print report bad tab
guest
You may want to rate the tab now too:
select rating
Wanna post a correction for this tab? Suggest correction