Oops, an error
Loading. Please wait.

April 5Th bass

163 views 1 this week
no commentswrite comment
1 2 3 4 5
x 8
add to favorites
×
Save as Personal and add changes to this tab that will be seen only by you. Learn more ›
×
You can save this tab as Personal to edit and correct it or add notes. All changes will be seen only by you. Learn more »
launch autoscroll
font size
0
reset
guitar tuner
edit
Autoscroll
slow
fast
+/-
esc
set tempo
stop
Author
Difficulty
Tabbed by: bassm99
E-mail: alanmatthews1966@yahoo.co.uk

Tuning: E, A, D, G

"April 5th" from the album "The Colour Of Spring" (1986)
Written by Mark Hollis/Tim Friese-Greene

Bass Starts: 0:11

Verse:

G|--------------------------------------------------------------------------|
D|--------------------------------------------------------------------------|
A|--6----9----6-------------------------------------------------------------|
E|-----------------7-(x4)----2-(x1)-----------------------------------------|

Chorus:

G|--------------------------------------------------------------------------|
D|--------------------------------------------------------------------------|
A|-----4--2---------2--4--2------2--4--2---------2--4--3--------------------|
E|--4--------4----------------------------4---------------------------------|

Bridge:

G|--------------------------------------------------------------------------|
D|--------------------------------------------------------------------------|
A|--6--------------6--------------------------------------------------------|
E|-------4-(x6)---------7-(x1)----------------------------------------------|

Repeat Verse:

Repeat Chorus:

Bridge:

G|--------------------------------------------------------------------------|
D|--------------------------------------------------------------------------|
A|--6-----------------------------------------------------------------------|
E|-------4-(x22)------------------------------------------------------------|

NOTE: This song originally has no bass. This is my interpretation of how the 
the bass might be played following the keyboard parts during the song. 

            
            
Suggest correction
Creating personal tab
Creating personal tab
You can edit any tab online and save it as your Personal.

You can edit, replace or remove any tab part or add personal notes – all changes will be seen only by you.

Personal tabs can be accessed anytime from any device, even offline.
Learn more »
comments
print report bad tab
guest
You may want to rate the tab now too:
select rating
Wanna post a correction for this tab? Suggest correction