Oops, an error
Loading. Please wait.

Desire Bass Tab

10 views 1 this week
no commentswrite comment
1 2 3 4 5
3 more votes to show rating
add to favorites
launch autoscroll
font size
0
reset
guitar tuner
Autoscroll
slow
fast
+/-
esc
set tempo
stop
Help us to improve Ultimate-Guitar.com Take our survey!
×
Author
Difficulty
intermediate
About this tab version
As recorded with rhythm notation. Was this info helpful? Yes No
                                     Desire
                                    Talk Talk
 
Bass                                                          Mark Hollis
                                                        Tim Friese-Greene

As played by Paul Webb

Intro

42 Bars Rest

Verse 1

G|-----------------|-----------------|-----------------|-----------------|
D|-----------------|-----------------|-----------------|-----------------|
A|-----------------|-----------------|-----------------|-----------------|
E|-0-------0-3-3-3-|-3-----5-----0---|(0)------0-3-3-3-|-3-----5-----0---|
B|-----------------|-----------------|-----------------|-----------------|
   H     E E S S E   Q.    Q.    Q     H     E E S S E   Q.    Q.    Q

G|-----------------|-----------------|-----------------|-----------------|
D|-----------------|-----------------|-----------------|-----------------|
A|-----------------|-----------------|-----------------|-----------------|
E|-0-------0-3-3-3-|-3---------------|-0-------0-3-3-3-|-3---------------|
B|-----------------|---------3-------|-----------------|---------3-------|
   H     E E S S E   H       H         H     E E S S E   H       H

G|-----------------|-----------------|-----------------|-----------------|
D|-----------------|-----------------|-----------------|-----------------|
A|-----------------|-----------------|-----------------|-----------------|
E|-0-------0-3-3-3-|-3-----5-----0---|(0)------0-3-3-3-|-3-----5-----0---|
B|-----------------|-----------------|-----------------|-----------------|
   H     E E S S E   Q.    Q.    Q     H     E E S S E   Q.    Q.    Q

G|-----------------|-----------------|-----------------|-----------------|
D|-----------------|-----------------|-----------------|-----------------|
A|-----------------|-----------------|-----------------|-----------------|
E|-0-------0-3-3-3-|-3---------------|-0-------0-3-3-3-|-3-------------0-|
B|-----------------|---------3-------|-----------------|---------3-------|
   H     E E S S E   H       H         H     E E S S E   H       Q.    E

Chorus 1

G|-----------------|-----------------|-----------------|-----------------|
D|-----------------|-0-------0-2-----|---------2---4---|-0---------------|
A|---------2-------|-----0-----------|-----------------|-----0---0-------|
E|(0)----------2---|---------------0-|(0)--------------|-----------3-0---|
B|-----------------|-----------------|-----------------|-----------------|
   H       Q   Q     Q   Q   E Q   E   H       Q   Q     Q   Q   E E Q

G|-----------------|-----------------|-----------------|-----------------|
D|---------2---4---|-0---------------|-----------------|-----------------|
A|-----------------|-----0---0-2-4---|(4)--------------|-2---------------|
E|(0)--------------|-----------------|-----------------|-----------------|
B|-----------------|-----------------|-----------------|-----------------|
   H       Q   Q     Q   Q   E E Q     W                 H       H

Interlude

17 Bars Rest

Verse 2

G|-----------------|-----------------|-----------------|-----------------|
D|-----------------|-----------------|-----------------|-----------------|
A|-----------------|-----------------|-----------------|-----------------|
E|-0-------0-3-3-3-|-3-----5-----0---|(0)------0-3-3-3-|-3-----5-----0---|
B|-----------------|-----------------|-----------------|-----------------|
   H     E E S S E   Q.    Q.    Q     H     E E S S E   Q.    Q.    Q

G|-----------------|-----------------|-----------------|-----------------|
D|-----------------|-----------------|-----------------|-----------------|
A|-----------------|-----------------|-----------------|-----------------|
E|-0-------0-3-3-3-|-3---------------|(0)------0-3-3-3-|-3---------------|
B|-----------------|---------3-------|-----------------|---------3-------|
   H     E E S S E   H       H         H     E E S S E   H       H

G|-----------------|-----------------|-----------------|-----------------|
D|-----------------|-----------------|-----------------|-----------------|
A|-----------------|-----------------|-----------------|-----------------|
E|-0-------0-3-3-3-|-3-----5-----0---|(0)------0-3-3-3-|-3-----5-----0---|
B|-----------------|-----------------|-----------------|-----------------|
   H     E E S S E   Q.    Q.    Q     H     E E S S E   Q.    Q.    Q

G|-----------------|-----------------|-----------------|-----------------|
D|-----------------|-----------------|-----------------|-----------------|
A|-----------------|-----------------|-----------------|-----------------|
E|-0-------0-3-3-3-|-3---------------|(0)------0-3-3-3-|-3-------------0-|
B|-----------------|---------3-------|-----------------|---------3-------|
   H     E E S S E   H       H         H     E E S S E   H       Q.    E

Chorus 2

G|---------4-------|-----------------|-----------------|-----------------|
D|-------------4---|-0-------0-2-----|---------2---4---|-0---------------|
A|-----------------|-----0-----------|-----------------|-----0---0-------|
E|(0)--------------|---------------0-|(0)--------------|-----------3-0---|
B|-----------------|-----------------|-----------------|-----------------|
   H       Q   Q     Q   Q   E Q   E   H       Q   Q     Q   Q   E E Q

G|---------4-------|-----------------|-----------------|-----------------|
D|-------------4---|-0---------0---2-|(2)--------2---2-|-2-2---2---------|
A|-----------------|-----0---0-------|-----------------|-----------------|
E|(0)--------------|-----------------|---0-----0-------|-----------------|
B|-----------------|-----------------|-----------------|-----------------|
   H       Q   Q     Q   Q   E Q   E   H       E Q   E   E Q   Q   Q.

Breakdown

G|-------------|-----------------|
D|-- 20 Bars --|-----------------|
A|--  Rest   --|-----------------|
E|-------------|---------------0-|
B|-------------|-----------------|

Chorus 3
                                                                         x3
G||------------------|-----------------|-----------------|------------------||
D||o---------2---4---|-0---------------|---------2---2---|-2---2---2-------o||
A||o-----------------|-----0---0-------|-----------------|-----------------o||
E||-(0)--------------|-----------3---0-|(0)--------------|---------------0--||
B||------------------|-----------------|-----------------|------------------||
     H       Q   Q     Q   Q   E Q   E   H       Q   Q     Q   Q   Q   E E

G|-----------------|-----------------|-----------------|-----------------||
D|---------2---4---|-0---------------|-----------------|-----------------||
A|-----------------|-----0---0-2---4-|(4)--------------|-2---------------||
E|(0)--------------|-----------------|-----------------|-----------------||
B|-----------------|-----------------|-----------------|-----------------||
   H       Q   Q     Q   Q   E Q   E   W                 H.          Q


Key to rhythm notations:

W - Whole Note/Semi-Brieve
H - Half Note/Minim
Q - Quarter Note/Crotchet       Q. - Dotted Quarter Note
E - Eight Note/Quaver           E. - Dotted Eight Note
S - Sixteenth Note/Semi-Quaver  S. - Dotted Sixteenth Note

Suggest correction
Give kudos to tab author, rate the tab!
1 2 3 4 5
comments
print report bad tab
guest
You may want to rate the tab now too:
select rating
Wanna post a correction for this tab? Suggest correction