Oops, an error
Loading. Please wait.

Desire tab

271 views 3 this week
no commentswrite comment
1 2 3 4 5
x 3
add to favorites
×
Save as Personal and add changes to this tab that will be seen only by you. Learn more ›
×
You can save this tab as Personal to edit and correct it or add notes. All changes will be seen only by you. Learn more »
launch autoscroll
font size
0
reset
how to read this tab
guitar tuner
edit
Autoscroll
slow
fast
+/-
esc
set tempo
stop
Author
[Segue from Eden - 0:00]

   Strings arr for guitar
   N.C.                                                  E11   E
e|-----------------|-----------------|-----------------|-5-----4-----0---|
B|-9---------------|(9)--------------|(9)--------------|(9)----9-----9---|
G|-----------------|-----------------|-----------------|-----------------|
D|-----------------|-----------------|-----------------|-----------------|
A|-----------------|-----------------|-----------------|-----------------|
E|-----------------|-----------------|-----------------|-----------------|

   Strings arr for guitar
   E5                   Em7               Esus4             Dsus2sus4
e|-7---------------|(7)-7------------|(7)-5------------|(5)-3------------|
B|-5---------------|(5)-3------------|(3)-3------------|(3)-3------------|
G|-----------------|-----------------|-----------------|-----------------|
D|-----------------|-----------------|-----------------|-----------------|
A|-----------------|-----------------|-----------------|-----------------|
E|-----------------|-----------------|-----------------|-----------------|
 |                                                                       |
 | Organ arr for guitar                                                  |
e|-----------------|-----------------|-----------------|-----------------|
B|-----------------|-----------------|-----------------|-----5-----------|
G|-----------------|---------4-------|(4)--2-----------|(2)--2-----------|
D|-----------------|---------5-------|(5)--5-----------|(5)--0-----------|
A|-----------------|-----------------|-----------------|-----------------|
E|-----------------|---------0-------|(0)--0-----------|(0)--------------|

   Organ arr for guitar
       Am/D                                                      C/E
e|-----------------|-----------------|-----------------|-----------------|
B|(5)--1-----------|(1)--------------|(1)--------------|(1)------1-------|
G|(2)--2-----------|(2)--------------|(2)--------------|(2)------0-------|
D|(0)--0-----------|(0)--------------|(0)--------------|(0)--------------|
A|-----------------|-----------------|-----------------|-----------------|
E|-----------------|-----------------|-----------------|---------0-------|

   Organ arr for guitar
   C/E     Em7               C/E               Am7               Em7
e|-----------------|-----------------|-----------------|-----------------|
B|-1---------------|-----------------|-----------------|-----------------|
G|-0-------0-------|(0)------0-------|(0)------0-------|(0)------0-------|
D|---------0-------|(0)--------------|-----------------|---------2-------|
A|-----------------|---------3-------|(3)------0-------|(0)--------------|
E|(0)------0-------|(0)------0-------|(0)------0-------|(0)------0-------|

[Intro - 0:46]

e|-----------------|-----------------|-----------------|-----------------|
B|-----------------|-----------------|-----------------|-----------------|
G|-----------------|-----------------|-----------------|-----------------|
D|-----------------|-----------------|-----------------|-----------------|
A|-----------2---2-|(2)--------2---2-|(2)--------2---2-|(2)--------2---2-|
E|-----------0---3-|(3)--------0---0-|(0)--------0---3-|(3)--------0---0-|
   H       E Q   E   E E Q   E Q   E   E E Q   E Q   E   E E Q   E Q   E

             Em            Em7                   Em            Em7
e|-----------------|-----------------|-----------------|-----------------|
B|-----------------|-----------------|-----------------|-----------------|
G|-----------------|-----------------|-----------------|-----------------|
D|-----------------|-----------------|-----------------|-----------------| x5
A|(2)--------2---2-|(2)--------2---2-|(2)--------2---2-|(2)--------2---2-|
E|(0)--------0---3-|(3)--------0---0-|(0)--------0---3-|(3)--------0---0-|
   E E Q   E Q   E   E E Q   E Q   E   E E Q   E Q   E   E E Q   E Q   E

             Em              Am7
e|-----------------|-----------------|
B|-----------------|-----------------|
G|-----------------|-----------------|
D|-----------------|-----------------|
A|(2)--------2---2-|(2)--------------|
E|(0)--------0---3-|(3)------5-------|
   E E Q   E Q   E   E E Q   H

[Verse 1]

  Em
Desire
G6 Bm/A      Esus4 E7sus4  
Whispered, spoken

G F#m/A  E  E/G E/D  E  E/G E/D

   Em
In time
G6 Bm/A  Esus4 E7su4
Rivers,  oceans

G F#m/A  E  E/G E/D  E  E/G E/D

[Chorus 1]

           Em
That ain't me, babe
           Em
That ain't me, babe
           Em
That ain't me, babe
         C#m                   B
I'm just content to relax than drown within myself

[Interlude 1]

  (B)                                                Em        Em7
e|-----------------|-----------------|-----------------|-----------------|
B|-----------------|-----------------|-----------------|-----------------|
G|-----------------|-----------------|-----------------|-----------------|
D|-----------------|-----------------|-----------------|-----------------|
A|-----------2---2-|(2)--------2---2-|(2)--------2---2-|(2)--------2---2-|
E|-----------0---3-|(3)--------0---0-|(0)--------0---3-|(3)--------0---0-|
   H       E Q   E   E E Q   E Q   E   E E Q   E Q   E   E E Q   E Q   E

             Em            Em7                   Em            Em7
e|-----------------|-----------------|-----------------|-----------------|
B|-----------------|-----------------|-----------------|-----------------|
G|-----------------|-----------------|-----------------|-----------------|
D|-----------------|-----------------|-----------------|-----------------| x3
A|(2)--------2---2-|(2)--------2---2-|(2)--------2---2-|(2)--------2---2-|
E|(0)--------0---3-|(3)--------0---0-|(0)--------0---3-|(3)--------0---0-|
   E E Q   E Q   E   E E Q   E Q   E   E E Q   E Q   E   E E Q   E Q   E

             Em              Am7
e|-----------------|-----------------|
B|-----------------|-----------------|
G|-----------------|-----------------|
D|-----------------|-----------------|
A|(2)--------2---2-|(2)--------------|
E|(0)--------0---3-|(3)------5-------|
   E E Q   E Q   E   E E Q   H

[Verse 2]

   Em
Of mind
G6  Bm/A   Esus4  E7sus4
Sheltered, broken

G F#m/A  E  E/G E/D  E  E/G E/D

  Em
Denied
G6 Bm/A Esus4  E7sus4
Gifted, stolen

G F#m/A  E  E/G E/D  E  E/G E/D

[Chorus 2]
           Em
That ain't me, babe
           Em
That ain't me, babe
           Em
That ain't me, babe
            Em
Ain't got a bed of excuse for myself

[Percussion Break]

6 Bars Rest

e|-----------------|-----------------|-----------------|-----------------|
B|-----------------|-----------------|-----------------|-----------------|
G|-----------------|-----------------|-----------------|-----------------|
D|-----------------|-----------------|-----------------|-----------------| x2
A|-----------------|-----------------|-----------------|-----------------|
E|-----0-5-6b0-3---|-0\/\/\/\/\/\/\/\|-----0-5-6b0-3---|-0\/\/\/\/\/\/\/\|
   Q   E E E E Q     W                 Q   E E E E Q     W

e|-----------------|-----------------|-----------------|-----------------|
B|-----------------|-----------------|-----------------|-----------------|
G|-----------------|-----------------|-----------------|-----------------|
D|-----------------|-----------------|-----------------|-----------------|
A|-----------------|-----------------|-----------------|-----------------|
E|-----0-5-6b0-3---|-0-----2\/\/\/\/\|-----0-5-6b0-3---|-0\/\/\/\/\/\/\/\|
   Q   E E E E Q     W                 Q   E E E E Q     W

e|-----------------|-----------------|-----------------|
B|-----------------|-----------------|-----------------|
G|-----------------|-----------------|-----------------|
D|-----------------|-----------------|-----------------|
A|-----------------|-----------------|-----------------|
E|(0)\/\/\/\/\/\/\/|(0)\/\/\/\/\/\/\/|(0)\/\/\/\/\/\/\/|
   W                 W                 W               

[Chorus 2]
           Em
That ain't me, babe
           Em
That ain't me, babe
            Em
Ain't got a bed of excuse for myself
           Em
That ain't me, babe
           Em
That ain't me, babe
           Em
That ain't me, babe
         C#m                   B
I'm just content to relax than drown within myself

[Outro]

   Piano arr for guitar
   E5                E7sus4                              Em
e|-----------------|-----------------|-----------------|-----------------||
B|-----------------|-----------------|-----------------|-----------------||
G|-----4-----------|-2---------------|-----------------|-0---------------||
D|-2---------------|-0---------------|-----------------|-2---------------||
A|-----------------|-----------------|-----------------|-----------------||
E|-0---------------|-0---------------|-0-------2-------|-----------------||
Suggest correction
Creating personal tab
Creating personal tab
You can edit any tab online and save it as your Personal.

You can edit, replace or remove any tab part or add personal notes – all changes will be seen only by you.

Personal tabs can be accessed anytime from any device, even offline.
Learn more »
Give kudos to tab author, rate the tab!
1 2 3 4 5
comments
print report bad tab
guest
You may want to rate the tab now too:
select rating
Wanna post a correction for this tab? Suggest correction