Oops, an error
Loading. Please wait.

Eden Bass

31 views 3 this week
no commentswrite comment
1 2 3 4 5
3 more votes to show rating
add to favorites
launch autoscroll
font size
0
reset
guitar tuner
×
Best way to learn
"Eden"
Autoscroll
slow
fast
+/-
esc
set tempo
stop
Author
Difficulty
  follow
intermediate
About this tab version
As recorded with rhythm notation. Was this info helpful? Yes No
                                      Eden
                                    Talk Talk
 
Bass                                                          Mark Hollis
                                                        Tim Friese-Greene

As played by Paul Webb


Intro

G|---------------|-----------------|-----------------|
D|--- 16 Bars ---|-4---1-4---------|-----------------|
A|---   Rest  ---|-----------------|-----------------|
E|---------------|-----------------|-----------------|
B|---------------|-----------------|-----------------|
                   Q   E E H         W

Verse 1

G|-----------------|-----------------|-----------------|-----------------|
D|-1---1-----------|-4-------------3-|(3)--------------|-----------------|
A|-----------------|-----------------|---------6-------|-----------------|
E|-------2---------|-----------------|---------------6-|---------------6-|
B|-----------------|-----------------|-----------------|-4-----4---------|
   Q   E H           H.          E E   H       Q.    E   Q   E E Q.    E

G|-----------------|-----------------|-----------------|-----------------|
D|-----------------|-----------------|-----------------|-----------------|
A|-----------------|-------6-------4-|(4)--------------|-----------------|
E|-2-----4-------2-|(2)--------------|-------6-------4-|-6---------------|
B|-----------------|-----------------|-----------------|-------4-------2-|
   Q   E E Q.    E   Q   E E Q.    E   Q.    E Q.    E   Q   E E Q.    E

G|---------------5-|(5)----3---------|-----------------|
D|-----------------|---------------6-|(6)----4---------|
A|-----------------|-----------------|-----------------|
E|-----------------|-----------------|-----------------|
B|-4-----4---------|-----------------|-----------------|
   Q   E E Q.    E   Q.    E Q.    E   Q.    E H

Chorus 1

G|-----------------|-----------------|-----------------|-----------------|
D|-----------------|-----------------|-----------------|-----------------|
A|-------------1---|-----------------|-----------------|-----------------|
E|-----------2---2-|-4-4-------------|-----------6---2-|-4-4-------------|
B|-----------------|-----------------|---4---7---------|-----------------|
   H       E E E E   E E H.            E E E E E E E E   E E H.

G|-----------------|-----------------|-------8---------|-------4---------|
D|-----------------|-----------------|-----9-----------|-----------------|
A|-----6-------1---|-----------------|-----------------|-----------------|
E|---6---6---2---2-|-4-4-----1/------|-7-------7-------|-----------------|
B|-----------------|-----------------|-----------------|-----------------|
   E E E E E E E E   E E Q   H         Q.    S S H       Q.    E H

G|-----------------|
D|-----------------|
A|-----------------|
E|-----------------|
B|-----------------|
   W

Interlude 1

G|---------------|-----------------|-----------------|
D|--- 16 Bars ---|-4---1-4---------|-----------------|
A|---   Rest  ---|-----------------|-----------------|
E|---------------|-----------------|-----------------|
B|---------------|-----------------|-----------------|
                   Q   E E H         W

Verse 2

G|-----------------|-----------------|-----------------|-----------------|
D|-----------------|-4-------------3-|(3)--------------|-----------------|
A|-----------------|-----------------|---------6-------|-----------------|
E|-----------------|-----------------|---------------6-|---------------6-|
B|-----------------|-----------------|-----------------|-4-----4---------|
   Q   E H           H.          E E   H       Q.    E   Q   E E Q.    E

G|-----------------|-----------------|-----------------|-----------------|
D|-----------------|-----------------|-----------------|-----------------|
A|-----------------|-------6-------4-|(4)--------------|-----------------|
E|-2-----4-------2-|(2)--------------|-------6-------4-|-6---------------|
B|-----------------|-----------------|-----------------|-------4-------2-|
   Q   E E Q.    E   Q   E E Q.    E   Q.    E Q.    E   Q   E E Q.    E

G|---------------5-|(5)----3---------|-----------------|
D|-----------------|---------------6-|(6)----4---------|
A|-----------------|-----------------|-----------------|
E|-----------------|-----------------|-----------------|
B|-4-----4---------|-----------------|-----------------|
   Q   E E Q.    E   Q.    E Q.    E   Q.    E H


Chorus 2

G|-----------------|-----------------|-----------------|-----------------|
D|-----------------|-----------------|-----------------|-----------------|
A|-------------1---|-----------------|-----------------|-----------------|
E|-----------2---2-|-4-4-------------|-----------6---2-|-4-4-------------|
B|-----------------|-----------------|---4---7---------|-----------------|
   H       E E E E   E E H.            E E E E E E E E   E E H.

G|-----------------|-----------------|-------8---------|-------4---------|
D|-----------------|-----------------|-----9-----------|-----------------|
A|-----6-------1---|-----------------|-----------------|-----------------|
E|---6---6---2---2-|-4-4-----1/------|-7-------7-------|-----------------|
B|-----------------|-----------------|-----------------|-----------------|
   E E E E E E E E   E E Q   H         Q.    S S H       Q.    E H

G|-----------------|
D|-----------------|
A|-----------------|
E|-----------------|
B|-----------------|
   W

Interlude 2

16 Bars Rest

Instrumental

G|-----------------|-----------------|-----------------|-----------------|
D|-----------------|-----------------|-----------------|-----------4---3-|
A|-6-------------4-|-6-------------4-|-6-----6---------|-----------------|
E|-----------------|-----------------|-----------------|-----------------|
B|-----------------|-----------------|-----------------|-----------------|
   H.          E E   E E Q   Q.    E   E Q   Q.    Q     H       E Q   E

G|-----------------|-----------------|-----------------|-----------------|
D|(3)--------------|-----------------|---------------4-|(4)--------------|
A|---------6-------|-----------------|-----------------|-------6-------4-|
E|---------------6-|---------------4-|-------4---------|-----------------|
B|-----------------|-4-----4---------|-4---------------|-----------------|
   H       Q.    E   Q   E E Q.    E   Q   E E Q.    E   Q.    E Q.    E

G|-----------------|-----------------|-----------------|
D|-----------------|-----------------|-----------------|
A|(4)--------------|-------6---------|-6---------------|
E|-------6-------4-|-6---------------|-----------------|
B|-----------------|-----------------|-----------------|
   Q.    E Q.    E   E Q   E H         W

Guitar Solo

G|-----------------|-----------------|-----------------|-----------------|
D|-----------------|-----------------|-----------------|---6-------------|
A|-----------------|-----------------|-----------------|-----------------|
E|-4---------------|-----------4-----|-4---4-----------|-----------------|
B|-----------------|-----------------|-----------------|-----------------|
   W                 H       E Q.      Q   Q   H         E Q.    H
                                        _____   _____
                                       |  3  | |  3  |
G|-----------------|-----------------|-----------------|-----------------|
D|---------6-4-----|-----------------|-----------------|-----------------|
A|-------------6---|-----------------|-----------------|-----------------|
E|---4-------------|-----------------|-4--4--4-4--4--4-|-4---------------|
B|-----------------|-----------------|-----------------|-----------------|
   E Q.    E S E E.  W                 Q  Q  Q Q  Q  Q   W

G|-----------------|-----------------||
D|-----------------|-----------------||
A|-----------------|-----------------||
E|-4---------------|(4)--------------||
B|-----------------|-----------------||
   W                 W


Key to rhythm notations:

W - Whole Note/Semi-Brieve
H - Half Note/Minim
Q - Quarter Note/Crotchet       Q. - Dotted Quarter Note
E - Eight Note/Quaver           E. - Dotted Eight Note
S - Sixteenth Note/Semi-Quaver  S. - Dotted Sixteenth Note

Suggest correction
Give kudos to tab author, rate the tab!
1 2 3 4 5
comments
print report bad tab
guest
You may want to rate the tab now too:
select rating
Wanna post a correction for this tab? Suggest correction