Oops, an error
Loading. Please wait.

I Believe In You Bass Tab

28 views 1 this week
no commentswrite comment
1 2 3 4 5
3 more votes to show rating
add to favorites
launch autoscroll
font size
0
reset
guitar tuner
Autoscroll
slow
fast
+/-
esc
set tempo
stop
Help us to improve Ultimate-Guitar.com Take our survey!
×
Author
Difficulty
intermediate
About this tab version
As recorded with rhythm notation. Was this info helpful? Yes No
                                I Believe In You
                                    Talk Talk
 
Bass                                                          Mark Hollis
                                                        Tim Friese-Greene

As played by Paul Webb


Intro

20 Bars Rest

Verse 1

17 Bars Rest

Interlude 1

G||------------------|-----------------|-----------------|------------------||
D||o-----------------|-----------------|-----------------|-----------------o||
A||--------2---4---4-|-------2---4---4-|-------2---4---4-|-------2---4---4--||
E||o-----------------|-----------------|-----------------|-----------------o||
B||--2---------------|-2-2-------------|-2---------------|-2-2--------------||
     Q   E Q   E E E   E E E Q   E E E   Q   E Q   E E E   E E E Q   E E E

Verse 2
                                                                          x3
G||------------------|-----------------|-----------------|------------------||
D||o-----------------|-----------------|-----------------|-----------------o||
A||--------2---4---4-|-------2---4---4-|-------2---4---4-|-------2---4---4--||
E||o-----------------|-----------------|-----------------|-----------------o||
B||--2---------------|-2-2-------------|-2---------------|-2-2--------------||
     Q   E Q   E E E   E E E Q   E E E   Q   E Q   E E E   E E E Q   E E E

G|-----------------|-----------------|-----------------|-----------------|
D|-----------------|-----------------|-----------------|-----------------|
A|-------2---4---4-|-------2---4---4-|-2-----2---2---4-|-6---------------|
E|-----------------|-----------------|-----------------|-----------------|
B|-2---------------|-2-2-------------|-----------------|-----------------|
   Q   E Q   E E E   E E E Q   E E E   Q   E Q   E E E   W

Bridge 1

G|-----------------|---------4-4-----|-6-----6\--------|---------------4-|
D|-----------------|-----------------|-----------------|-----------------|
A|-----------------|-----------------|-----------------|-----------------|
E|-----------------|-----------------|-----------------|-----------------|
B|-2---------------|-----------------|-----------------|-----------------|
   W                 H       E E Q     Q.    E H         H.            E

G|-6-----6\--------|-----------4-----|-------6\--------|---------------4-|
D|-----------------|-----------------|-----------------|-----------------|
A|-----------------|-----------------|-----------------|-----------------|
E|-----------------|-----------------|-----------------|-----------------|
B|-----------------|-----------------|-----------------|-----------------|
   Q.    E H         H       E Q   E   Q.    E H         H.          E E

G|-----------------|-----------4---3-|-4-----4\--------|---------------4-|
D|-----------------|-2---------------|-----------------|-----------------|
A|-2-----2\--------|-----------------|-----------------|-----------------|
E|-----------------|-----------------|-----------------|-2---------------|
B|-----------------|-----------------|-----------------|-----------------|
   Q.    E H         H       E E E E   Q.    E H         H.          E E      

G|-----------------|-----------4---3-|-4-----4\--------|-----------------|
D|-----------------|-----------------|-----------------|-----------------|
A|-2-----2\--------|-----------------|-----------------|-----------------|
E|-----------------|-0---------------|-----------------|-2---------------|
B|-----------------|-----------------|-----------------|-----------------|
   Q.    E H         H       E E E E   Q.    E H         W

Instrumental

G||------------------|-----------------|-----------------|------------------||
D||o-----------------|-----------------|-----------------|-----------------o||
A||------------------|-----------------|-----------------|------------------||
E||o-----------------|-----------------|-----------------|-----------------o||
B||--2---------------|(2)--------------|(2)--------------|(2)---------------||

G|-----------6-----|---4-------------|-----------------|-----------------|
D|-----------------|-----------------|-----------------|-----------------|
A|-----------------|-----------2---4-|-4---------------|-----------------|
E|-----------------|-----------------|-----------------|-----------------|
B|-2---------------|-----------------|-2---------------|(2)--------------|
   H       E Q.      E H       Q   E   W                 W

G|-------4---6-----|-----------------|-----------------|-----------------|
D|-----------------|---6-------------|-----------------|-----------------|
A|-----------------|-----------------|-----------------|---4-------------|
E|-2---------------|-------0---------|-6---------------|-----------------|
B|-----------------|-----------------|-----------------|-----------------|
   Q.    Q   Q.      E Q   E H         W                 E E H.

G|-----------------|-----------------|-----------------|-----------------|
D|-----------------|-----------------|-----------------|-----------------|
A|(4)--------------|(4)--------------|-----------------|-----------------|
E|-----------------|-----------------|-6---------------|(6)--------------|
B|-----------------|-----------------|-----------------|-----------------|
   W                 W                 W                 W

G|-----------------|-----------6-----|-----------------|-----------------|
D|-----------2-----|---------------4-|(4)--------------|-----------------|
A|-----------------|-----------------|-----4-1---------|-----------------|
E|-----------------|-----------------|-----------------|-----------------|
B|-------0---------|-----------------|-----------------|-2---------------|
   Q.    Q   Q.      H       E Q   E   Q   E E H         W

G|-----------------|-----------------|-----------------|-----------------|
D|-----------------|-----------------|-----------------|-----------------|
A|-----------------|-----------------|-----------------|-2---------------|
E|-----------------|-----------------|-----------------|-----------------|
B|(2)--------------|(2)--------------|(2)--------------|-----------------|
   W                 W                 W                 W

Bridge 2/Outro

G|-----------------|-----------4-----|-6-----6\--------|-----------4-6---|
D|-----------------|-----------------|-----------------|-----------------|
A|-----------------|-----------------|-----------------|-----------------|
E|-----------------|-----------------|-----------------|-----------------|
B|-2---------------|-----------------|-----------------|-----------------|
   W                 H       E Q   E   Q.    E H         H       E E Q  

G|-6-----6\--------|-----------4-4---|-6-----6\--------|-----------------|
D|-----------------|-----------------|-----------------|-----------------|
A|-----------------|-----------------|-----------------|-2-----2\--------|
E|-----------------|-----------------|-----------------|-----------------|
B|-----------------|-----------------|-----------------|-----------------|
   Q.    E H         H       E E Q     Q.    E H         Q.    E H        

G|-----------4---3-|-4-----4\--------|---------------4-|-----------------|
D|-----------------|-----------------|-----------------|-----------------|
A|-----------------|-----------------|-----------------|-2-----2\--------|
E|-0---------------|-----------------|-2---------------|-----------------|
B|-----------------|-----------------|-----------------|-----------------|
   H       E E E E   Q.    E H         H.          E E   Q.    E H

G|---------4-----3-|-4-----4\--------|-----------------|-----------------|
D|-----------------|-----------------|-----------------|-----------------|
A|-----------------|-----------------|-----------------|-2-1-2-2\--------|
E|-0---------------|-----------------|-2-------------2-|-----------------|
B|-----------------|-----------------|-----------------|-----------------|
   H       Q.    E   Q.    E H         H.          E E   Q.    E H

G|---------------3-|-4-----4\--------|-----------------|-----------------|
D|-----------------|-----------------|-----------------|-----------------|
A|-----------------|-----------------|-----------------|-2-1-2-2\--------|
E|-0---------------|-----------------|-2-------------2-|-----------------|
B|-----------------|-----------------|-----------------|-----------------|
   H       Q.    E   Q.    E H         H.          E E   Q.    E H

G|-----------4-4-3-|-4-----4\--------|-----------------|-----------------|
D|-----------------|-----------------|-----------------|-----------------|
A|-----------------|-----------------|---------------2-|(2)--------------|
E|-0---------------|-----------------|-2---------------|-----------------|
B|-----------------|-----------------|-----------------|-----------------|
   H       E E.S E   Q.    E H         H.          E E   W

G|-----------------||
D|-----------------||
A|(2)--------------||
E|-----------------||
B|-----------------||
   W


Key to rhythm notations:

W - Whole Note/Semi-Brieve
H - Half Note/Minim
Q - Quarter Note/Crotchet       Q. - Dotted Quarter Note
E - Eight Note/Quaver           E. - Dotted Eight Note
S - Sixteenth Note/Semi-Quaver  S. - Dotted Sixteenth Note

Suggest correction
Give kudos to tab author, rate the tab!
1 2 3 4 5
comments
print report bad tab
guest
You may want to rate the tab now too:
select rating
Wanna post a correction for this tab? Suggest correction