Oops, an error
Loading. Please wait.

I Believe In You Tab

22 views 3 this week
no commentswrite comment
1 2 3 4 5
2 more votes to show rating
add to favorites
launch autoscroll
font size
0
reset
how to read this tab
guitar tuner
Autoscroll
slow
fast
+/-
esc
set tempo
stop
Help us to improve Ultimate-Guitar.com Take our survey!
×
Author
Difficulty
Tuning
intermediate
D# G# C# F# A# D#
About this tab version
As recorded with rhythm notation. Was this info helpful? Yes No
Chords relative to tuning, written a semitone higher than recorded.

[Intro]

eb|-----------------|-2-2-2-2-2-2-2-2-|-2-2-2-2---------|---2-------------|
Bb|-----------------|-3-3-3-3-3-3-3-3-|-3-3-3-3---------|-3-3-----------3-|
Gb|-----------------|-----------------|-------------2---|-----------2-----|
Db|-----------------|---------0-0-----|-----------------|-----------------|
Ab|-----------------|-----------------|-----------------|-----------------|
Eb|-----------------|-----------------|-----------------|-----------------|
    W                 E E E E E E E E   E E E E E E Q     E H       Q   E 

eb|-2---------2-2-2-|-----------------|-----------------|-----------------|
Bb|-3-1---1---3-3-3-|---------1-----3-|-3-----------0-1-|-1-------------0-|
Gb|-----2-----------|-------2-2-------|-------0-0-0-----|---------------0-|
Db|-----------------|-----------------|-----------------|-----------------|
Ab|-----------------|-----------------|-----------------|-----------------|
Eb|-----------------|-----------------|-----------------|-----------------|
    E E E Q   E E E   Q.    E Q.    E   Q.    E E E E E   Q   Q   Q   E E

eb|-------2-2-----2-|-----------------|-----------------|-----------------|
Bb|-1-----3-3-------|---------------3-|-------1---------|-----------------|
Gb|-0---------------|-0-0-------------|---0---0---------|-----------------|
Db|-----------------|-----------------|-----------------|-------------x-x-|
Ab|-----------------|-----------------|-3---3-----------|-------------x-x-|
Eb|-----------------|-----------------|-----------------|-----------------|
    Q.    E Q.    E   E H.          E   E E E E H         H      Q.   S S

eb|-----------------|-----------------|-----------------|-----------------|
Bb|-------3-3-3-3-3-|-------3-3-3-3-1-|-------1---------|-----------------|
Gb|---2---2-2-2-2-2-|---0---0-0-0-0---|-----0-0---------|-----------------|
Db|-0---------------|-----------------|-----------------|-------------x---|
Ab|-----------------|-----------------|-3-3-3-----------|---------------x-|
Eb|-----------------|-----------------|-----------------|-----------------|
    E E E E E E E E   E Q   E E E E E   E E E E H         H      Q.   S S

eb|-----------------|---2-3-2-------2-|-----------------|-----------------|
Bb|-------3---------|---3-3-3-------3-|-------1---------|-----------------|
Gb|-----0-2---------|-----------------|-----0-0---------|-----------------|
Db|---0-------------|-----------------|-----------------|-------------x-x-|
Ab|-----------------|-----------------|-3-3-3-----------|-------------x-x-|
Eb|-----------------|-----------------|-----------------|-----------------|
    E E E E H         E E E E Q.    E   E E E E H         H      Q.   S S


[Verse 1]

D
Hear it in my spirit
C                          D       C                        
    I've seen heroin for myself
       D                    
In the street so young laying wasted
C
   Enough ain't it enough
         D        C
Crippled world
             D                      C        C/E
I just can't bring myself to see it starting

[Interlude 1]

D  C/D  D  C/D

[Verse 2]
D 
Tell me how I fear it
C/D                       D       C/D
   I buy prejudice for my health
      D
Is it work so much when you taste it
C/D                                 D
   Enough there ain't enough hidden hurt
          C   
A time to sell yourself
  C/E
A time for passing

[Bridge]

G  Gsus2  G/C  G  G/D  D

G  Gsus2  G/C  G  G/D  D
     Spirit

C  Csus2  C/F  C  C/G  G
     How long

C  Csus2  C/F  C  C/G  G
     Spirit

[Instrumental]

Dsus2  D7  Dsus2
F  G/B  Dsus2
F  G  D  C

[Bridge 2/Outro]

G  Gsus2  G/C  G  G/D  D
     Spirit
G  Gsus2  G/C  G  G/D  D
     Spirit
C  Csus2  C/F  C  C/G  G
     How long
C  Csus2  C/F  C  C/G  G
     Spirit
C  Csus2  C/F  C  C/G  G
     How long
C  Csus2  C/F  C  C/G  G  C
Suggest correction
Give kudos to tab author, rate the tab!
1 2 3 4 5
comments
print report bad tab
guest
You may want to rate the tab now too:
select rating
Wanna post a correction for this tab? Suggest correction