Oops, an error
Loading. Please wait.

Inheritance tab

214 views 6 this week
no commentswrite comment
1 2 3 4 5
1 last vote to show rating
add to favorites
×
Save as Personal and add changes to this tab that will be seen only by you. Learn more ›
×
You can save this tab as Personal to edit and correct it or add notes. All changes will be seen only by you. Learn more »
launch autoscroll
font size
0
reset
how to read this tab
guitar tuner
edit
Autoscroll
slow
fast
+/-
esc
set tempo
stop
Author
[Intro]

   E5                        Esus2/4   E5                        C/E
e|-----------------|-----------------|-----------------|-----------------|
B|-----------------|-----------------|-----------------|---------1-------|
G|-----------------|---------2-------|-----------------|---------0-------|
D|-2---------------|---------4-------|-2---------------|---------2-------|
A|-2---------------|---------2-------|-2---------------|-----------------|
E|-0---------------|---------0-------|-0---------------|---------0-------|
                      _____   _____
   G                 |  3  | |  3  |   G
e|-----------------|------------3----|-----------------|-----------------|
B|-----------------|---------------3-|(3)--------------|-----------------|
G|---------------0-|----0--0-0-------|(0)------------0-|---0-------0---0-|
D|---------------0-|----0--0-0-------|(0)------------0-|---0-------0---0-|
A|---------------2-|----2--2-2-------|(2)------------2-|---2-------2---2-|
E|-----------------|-----------------|-----------------|-----------------|
 

   E5                         Esus2/4   E5                        C/E
e|-----------------|-----------------|-----------------|-----------------|
B|-----------------|-----------------|-----------------|-----------------|
G|-----------------|-----------------|-----------------|-0---------------|
D|-2---------------|-----------------|-----------------|-0---------------|
A|-2---------------|-----------------|-----------------|-2---------------|
E|-0---------------|-----------------|-----------------|-----------------|

G


[Verse 1]

Em       B7sus4  Em
   April song
  C/B G
Lilac glistening foal
Em        B7sus4 Em
   Ten as one
       C/B         G
On the breeze they flow

                Em         G
When it gets my heart out
                C          Cmaj7#11 Cmaj7
When it gets my heart out

   A           Asus2 A     Asus2 A         Asus2
e|-----------------|-----------------|-----------------|-----------------|
B|-------------0---|-2-------0---2---|-----0-----0-----|-0-----0-----0---|
G|-------------2---|-2-------2---2---|-----2-----2-----|-2-----2-----2---|
D|-------------2---|-2-------2---2---|-----2-----2-----|-2-----2-----2---|
A|-----------------|-----------------|-----------------|-----------------|
E|-----------------|-----------------|-----------------|-----------------|
 
Em


[Chorus 1]

D     Dadd9 D    
Nature's    son
Dadd9     C                   Cadd9
Don't you know where life has gone
C                       Cadd9   D    Dadd9  D 
Burying progress in the clouds   
Dadd9  C                  Cadd9
How we learn to linger on
C             
Head in sand 
              Cadd9  D    Dadd9  D 
expecting the dour 
Dadd9 Bb
To re-dress with open arms
 C
Ascension in incentive end


[Woodwind Break]


[Interlude]

             Em
e|---------|-----------------|-----------------|---------------0-|(0)--------------|
B|---0---0-|-----------------|-----------0---0-|-----------------|-------0---0-0---|
G|---0---0-|-0-------------0-|(0)--------0---0-|-0---------------|-------0---0-0---|
D|---2---2-|-2-------------2-|(2)--------2---2-|-2---------------|-------2---2-2---|
A|---------|-2-------------2-|(2)--------------|-2---------------|-----------------|
E|---------|-0-------------0-|(0)--------------|-0---------------|-----------------|
 

e|---------------2-|---2-3-----3---3-|(3)--------------|-----------------|
B|---------------0-|---0-0-----3---3-|(3)------------0-|---0-------------|
G|-0---------------|-----------0---0-|(0)------------0-|---0-------------|
D|-0---------------|-----------0---0-|(0)------------0-|---0-----0-------|
A|-2---------------|-----------------|---------------2-|---2-----2-------|
E|-3-------------3-|---3-3-----------|-----------------|---------0-------|
 

[Verse 2]

                Em         G
When it gets my heart out
                Cadd9       C  Cadd9
When it gets my heart out

[Chorus 2]

D     Dadd9 D    
Nature's    son
Dadd9     C                   Cadd9
Don't you know where life has gone
C                           Cadd9   D    Dadd9  D 
Desperately befriending the crowd
Dadd9  C                  Cadd9
To in- cessantly drive on
C                       Cadd9   D    Dadd9  D  Dadd9
Dress in gold's surrendering    gown


[Instrumental]

C   Cadd9 C   Cadd9 Gm


[Outro]

       Gm                     Gsus2/4
Heaven bless you in your calm
Gm               Gsus2/4   Gm
   My gentle friend
Gsus2/4 Gm
Heaven  bless you


******************
|(n)    Tied note
| ___
|| 3 |  Triplet
******************

            
            
Suggest correction
Creating personal tab
Creating personal tab
You can edit any tab online and save it as your Personal.

You can edit, replace or remove any tab part or add personal notes – all changes will be seen only by you.

Personal tabs can be accessed anytime from any device, even offline.
Learn more »
Give kudos to tab author, rate the tab!
1 2 3 4 5
comments
print report bad tab
guest
You may want to rate the tab now too:
select rating
Wanna post a correction for this tab? Suggest correction