Oops, an error
Loading. Please wait.

Inhertiance Bass Tab

13 views 1 this week
no commentswrite comment
1 2 3 4 5
3 more votes to show rating
add to favorites
launch autoscroll
font size
0
reset
guitar tuner
Autoscroll
slow
fast
+/-
esc
set tempo
stop
Help us to improve Ultimate-Guitar.com Take our survey!
×
Author
Difficulty
intermediate
About this tab version
As recorded with rhythm notation. Was this info helpful? Yes No
                                   Inhertiance
                                    Talk Talk
 
Bass                                                          Mark Hollis
                                                        Tim Friese-Greene

As played by Danny Thompson


Intro

G|-----------------|-----------------|-----------------|-----------------|
D|-----------------|-----------------|-----------------|-----------------|
A|-----------------|-----------------|-----------------|-----------------|
E|-0---------------|(0)--------------|-0---------------|(0)--------------|
   W                 W                 W                 W

G|-----------------|-------4--4------|-----------------|-----------------|
D|-----------------|-----------------|-----------------|-----------------|
A|-----------------|-----------------|-----------------|-----------------|
E|-3---------------|-3---------------|-3---------------|(3)------0-------|
   W                 Q.    E. E. Q     W                 H       H

G|-----------------|-----------------|-----------------|-----------------|
D|-----------------|---------2-------|-----------------|---------2-------|
A|-----------------|-----------------|-----------------|-----------------|
E|-0---------------|(0)--------------|-0---------------|(0)--------------|
   W                 H       H         W                 H       H

G|-----------------|-------4--4------|-----------------|-----------------|
D|-----------------|-----------------|-----------------|-----------------|
A|-----------------|-----------------|-----------------|-----------------|
E|-3---------------|-3---------------|-3---------------|(3)--------------|
   W                 Q.    E. E. Q     W                 W

Verse 1

G|-----------------|-----------------|-----------------|-----------------|
D|-----------------|-----------------|-----------------|-----------------|
A|-----------------|---------2-------|-----------------|---------2-------|
E|-0---------------|(0)--------------|-0---------------|(0)--------------|
   W                 H       H         W                 H       H       

G|-----------------|-----------------|-----------------|-----------------|
D|-----------------|-----------------|-----------------|-----------------|
A|-----------------|---------2---5---|-----------------|-----------------|
E|-3---------------|(3)--------------|-3---------------|(3)------2-------|
   W                 H       Q   Q     W                 H       H       

G|-----------------|-----------------|---------------4-|---4-------------|
D|-----------------|-----------------|-----------------|-----------------|
A|-----------------|---------2-------|-----------------|---------2-------|
E|-0---------------|(0)--------------|-0---------------|(0)--0-----------|
   W                 H       H         H.          E E   S E.Q   H     

G|-----------------|---------4-------|-----------------|-----------------|
D|-----------------|-----------0-----|-----------------|-----------------|
A|-----------------|-----------------|-----------------|---------2-------|
E|-3---------------|(3)--------------|-3---------------|(3)--------------|
   W                 H       E Q.      W                 H       H 

G|-----------------|-----------------|-----------------|-----------2--4--|
D|-----------------|---------4-------|-5---------------|(5)--------------|
A|-----------------|-----------------|-----------------|-----------------|
E|-0---------------|(0)--------------|-3---------------|(3)--------------|
   W                 H       H         W                 H       E E. E.

G|-------------5---|-----5-----------|-------------5---|------5----------|
D|-----------------|-----------------|-----------------|-----------------|
A|-3---------------|-----------------|-3---------------|-------------3---|
E|-----------------|-------------3---|-----------------|-----------------|
   H.          Q     Q   H       Q     H.          Q     Q    H      Q

G|-2---------------|(2)--------------|-2---------------|(2)--------------|
D|-----------------|-----------------|-----------------|-----------------|
A|-0---------------|(0)--------------|-0---------------|(0)--------------|
E|-----------------|-----------------|-----------------|-----------------|
   W                 W                 W                 W               

G|------12p11-12p11|------12p11-12p11|------12p11-12p11|--12h15p12-11--12-11-|
D|-----------------|-----------------|-----------------|---------------------|
A|-----------------|-----------------|-----------------|---------------------|
E|-0----0----------|-0----0----------|-0----0----------|-0------0---------0--|
   Q.   E  Q   E E   Q.   E  Q   E E   Q.   E  Q   E E   E S E. E  Q   E  E

Chorus 1

G|------/7/7--/7---|-------9-----9---|-9-5---7-----7---|-------------7---|
D|-0-------------0-|(0)------------0-|---------0-----0-|-0---------------|
A|-----------------|-----------------|-----------------|-----------------|
E|-----------------|-----------------|-----------------|-------7-------8-|
   Q.    E Q   E E   Q.    Q.    E E   E Q   E Q   E E   Q.    Q.    E E

G|-----------------|-----13\12-13\12-|-----------------|------/9-----9---|
D|------------10---|-----------------|------------10---|-----------------|
A|-----------------|-----------------|-----------------|-----------------|
E|(8)----8-------8-|-8----8--------8-|-8-8---8-------8-|(8)--------------|
   Q.    Q.    E E   Q.   E Q   E  E   E Q   Q.    E E   Q.    Q.    Q

G|(9)--------------|------/9----/9---|-9--------/7---7-|-----/11---/11---|
D|---0---0-----0---|-0---------------|---5--/8---------|-0---------------|
A|-----------------|-----------------|-----------------|-----------------|
E|-----------------|-----------------|-----------------|---------------8-|
   E Q   Q.    Q     Q.    Q.    Q     E Q   Q   Q   E   Q.    Q.    E E

G|-----------------|------12-12--12--|-----------------|-------9-9--/9---|
D|------10----10---|-----------------|-------10----10--|-----------------|
A|-----------------|-----------------|-----------------|-----------------|
E|(8)------------8-|(8)------------8-|(8)------------8-|(8)---/8----/8---|
   Q.    Q.    E E   Q.    E Q   E E   Q.    Q.    E E   Q.    E Q   Q

G|-9---------------|------/9-9--/9---|------------/7---|-----------------|
D|---0---0-0---0---|-0---------------|-0-----0-0-----0-|(0)--------------|
A|-----------------|-----------------|-----------------|-----------------|
E|-----------------|-----------------|-----------------|---------7---7---|
   E Q   E Q   Q     Q.    E Q   Q     Q.    E Q   E E   H       Q   Q

G|-----------------|-14-15-14--------|-----------------|-----------------|
D|-----------------|-----------------|-----------------|-----------------|
A|---5---8------13-|-----------------|-----------------|-----------------|
E|-6---------------|---------13------|-8---------------|(8)--------------|
   E Q   H       E   E  E  E  E H      W                 W

Woodwind Break

23 Bars Rest

Verse 2

G|-----------------|-----------------|-----------------|-----------------|
D|-----------------|-----------------|-----------------|-----------------|
A|-----------------|-----------------|-----------------|-----------------|
E|-0---------------|(0)--------------|-0---------------|(0)--------------|
   W                 W                 W                 w

G|-----------------|-----------------|-----------11h13-|-----------------|
D|-----------------|-----------------|-----------------|-----------7-----|
A|-----------------|-----------------|-----------------|-----------------|
E|-3---------------|(3)--------------|-3---------------|-----------------|
   W                 W                 H.         E  E   H       E Q.      

G|-----------------|-----------------|-----------------|-----------------|
D|-----------------|-----------------|-----------------|-----------------|
A|-----------------|-----------------|-----------------|-----------0--2--|
E|-0---------------|---------2-------|-3---------------|-----------------|
   W       H         H       H         W                 H       E E. E.    

G|------12-12--12--|------13-12--13--|------13-12--13--|------13-12--13--|
D|-----------------|-----------------|-----------------|-----------------|
A|-3---------------|-----------------|-----------------|-----------------|
E|---------------8-|(8)----8-------8-|(8)----8-------8-|(8)----8-------8-|
   Q   E E Q   Q E   Q   E E Q   Q E   Q   E E Q   Q E   Q   E E Q   Q E


Chorus 2

G|-------7-----7---|------/9----/9---|-9-5---7-----7---|-------4-----7---|
D|-0-----0-0-7---0-|(0)------------0-|---------0-7---0-|(0)--------------|
A|-----------------|------/7----/7---|-----------------|-------2-------2-|
E|-----------------|-----------------|-----------------|-----------------|
   Q.    E E E E E   Q.    Q.    E E   E Q   E E E E E   Q.    Q.    E E

G|-----------------|-----13\12-13\12-|-----------------|------/9-----9---|
D|------10----10---|-----------------|------10-10-10---|-----------------|
A|-----------------|-----------------|-----------------|------/7----/7---|
E|(8)------------8-|-8----8--------8-|-8-------------8-|(8)--------------|
   Q.    Q.    E E   Q.   E Q   E  E   Q.    E Q   E E   Q.    Q.    Q

G|(9)--------------|------/9---/11-9-|-9---------------|-----/11---/11---|
D|---0---0-----0---|-0---------------|---0---0-0---0---|-0---------------|
A|-----------------|-------7-----9-7-|-----------------|-----------------|
E|-----------------|-----------------|-----------------|---------------8-|
   E Q   Q.    Q     Q.    Q.    E E   E Q   E Q   Q     Q.    Q.    E E

G|-----------------|-----13-12-13-12-|-----------------|---7---7-9-5-7---|
D|------10----10---|-----------------|------10----10---|-----------------|
A|-----------------|-----------------|-----------------|---------7-------|
E|(8)------------8-|(8)------8-----8-|(8)------------8-|(8)------------8-|
   Q.    Q.    E E   Q.   E Q   E  E   Q.    Q.    E E   E E E E E E E E

G|-9-------------7---|------/9-9--/9---|-9------------/7---|------13-12-13-12-|
D|-------0-0-0-----0-|-0---------------|-------0-0-0-----0-|(0)---------------|
A|-------------------|-----------------|-------------------|------------------|
E|---8---------------|-----------------|---8---------------|---------8-----8--|
   E E E S S Q   E E   Q.    E Q   Q     E E E S S Q   E E   Q.    E Q   E E

G|-----------------|----/7----/7-----|-11-------10-11--|------10-9--11-10-|
D|-----------------|-----------------|---10--10--------|------------------|
A|-----------------|-----------------|-----------------|------------------|
E|-8---8-----8---8-|-8-------------8-|---------------8-|(8)------8--------|
   Q   Q.    Q   E   Q   Q.    Q   E   E Q   Q   E E E   Q.    E Q   E E

Outro

G|-----------------|-----------------|-----------------|-----------------|
D|-----------------|-----------------|-----------------|-----------------|
A|-----------------|-----------------|-----------------|-----------------|
E|-3---------------|(3)------------3-|-3---------------|(3)--------------|
   W                 H.          E E   W                 W

G|-----------------|-----------------|-----------------|-----------------|
D|-----------------|---------5-------|-----------------|-----------5-----|
A|-----------------|-----------------|-----------------|-----------------|
E|-3---------------|(3)--------------|-3---------------|(3)--------------|
   W                 H       H         W                 H       E Q.

G|-----12----------|(12)-------------|(12)-------------||
D|-----------------|-----------------|-----------------||
A|-----10----------|(10)-------------|(10)-------------||
E|-----------------|-----------------|-----------------||
   Q   H.            W                 W



Key to rhythm notations:

W - Whole Note/Semi-Brieve
H - Half Note/Minim
Q - Quarter Note/Crotchet       Q. - Dotted Quarter Note
E - Eight Note/Quaver           E. - Dotted Eight Note
S - Sixteenth Note/Semi-Quaver  S. - Dotted Sixteenth Note

Suggest correction
Give kudos to tab author, rate the tab!
1 2 3 4 5
comments
print report bad tab
guest
You may want to rate the tab now too:
select rating
Wanna post a correction for this tab? Suggest correction