Oops, an error
Loading. Please wait.

Living In Another World bass

2,039 views 6 this week
no commentswrite comment
1 2 3 4 5
2 more votes to show rating
add to favorites
×
Save as Personal and add changes to this tab that will be seen only by you. Learn more ›
×
You can save this tab as Personal to edit and correct it or add notes. All changes will be seen only by you. Learn more »
launch autoscroll
font size
0
reset
guitar tuner
edit
Autoscroll
slow
fast
+/-
esc
set tempo
stop
Author
Difficulty
-----------------------------------------------------------------------------
              Living in Another World  - Talk Talk

                              BASS TAB
-----------------------------------------------------------------------------

Tabbed By: TOPmusicman8


A great song! Paul Webb really kicks ass on this song! 
Timing is key in this song...hard to tab the spacing of his notes but
it's easy to follow once you hear the song a bit.



*Standard Tuning*



*Intro 

G|------------------------------|-------------------------------|
D|------------------------------|-------------------------------|
A|------------------------------|-------------------------------|
E|---5--------------------------|-------5-----------------------|
                                                             

G|------------------------------|-------------------------------|
D|------------------------------|-------------------------------|
A|------------------------------|-------------------------------|
E|---1--------------------------|--1------------------------3---|
                                                  

G|------------------------------|-------------------------------|
D|------------------------------|-------------------------------|
A|------------------------------|-------------------------------|
E|---5--------------------------|-------5-----------------------|
                                                             

G|------------------------------|-------------------------------|
D|------------------------------|-------------------------------|
A|------------------------------|-------------------------------|
E|---1--------------------------|--1------------------------3---|
                                                 




*First Verse only

G|------------------------------|-------------------------------|
D|------------------------------|-------------------------------|
A|------------------------------|-------------------------------|
E|---5--------------------------|-------5-----------------------|
             Better Parted                                                 


G|------------------------------|-------------------------------|
D|------------------------------|-------------------------------|
A|------------------------------|-------------------------------|
E|---1--------------------------|--1------------------------3---|
                     I see    people                  crying  



G|------------------------------|-------------------------------|
D|------------------------------|-------------------------------|
A|------------------------------|-------------------------------|
E|---5--------------------------|-------5-----------------------|
                                                             

G|------------------------------|-------------------------------|
D|------------------------------|-------------------------------|
A|------------------------------|-------------------------------|
E|---1--------------------------|--1------------------------3---|                



G|------------------------------|-------------------------------|
D|------------------------------|-------------------------------|
A|------------------------------|-------------------------------|
E|---5--------------------------|-------5-----------------------|
             Truth    gets      harder                                                


G|------------------------------|-------------------------------|
D|------------------------------|-------------------------------|
A|------------------------------|-------------------------------|
E|---1--------------------------|--1------------------------3---|

                    There's   no sense    in    lying    



G|------------------------------|-------------------------------|
D|------------------------------|-------------------------------|
A|------------------------------|-------------------------------|
E|---5--------------------------|-------5-----------------------|
                                                             

G|------------------------------|-------------------------------|
D|------------------------------|-------------------------------|
A|------------------------------|-------------------------------|
E|---1--------------------------|--1------------------------3---|






*Pre-chorus


G|----------4---------------------|-------------------------------|
D|-----2--4-------------------0-2-|--------7-3------5-------7-----|
A|--2---------0-2-2-X-2-X-2-0-----|-----5---------5-------7----7-5|
E|--------------------------------|---3---------3------5----------|

          Help me    Find a way from this maze    


G|----------4---------------------|-------------------------------|
D|-----2--4-------------------0-2-|--------7-3------5-------7-----|
A|--2---------0-2-2-X-2-X-2-0-----|-----5---------5-------7----7-5|
E|--------------------------------|---3---------3------5----------|

                       I can't help myself                         




*Chorus

G|------------------------------|-------------------------------|
D|-------------6---------------1|-------------------------------|
A|----1--3-------6-8---------3--|--4----3-4---3-4---4--6-6-4-3--|
E|-1------------------1-x-1-----|-----1-------------------------|

   When I see tenderness before you left (forget)



G|------------------------------|-------------------------------|
D|-------------6---------------1|-------------------------------|
A|----1--3-------6-8---------3--|--4----3-4---3-4---4--6-6-4-3--|
E|-1------------------1-x-1-----|-----1-------------------------|

  That even breaking up was never meant (forget)



G|------------------------------|-------------------------------|
D|-------------6---------------1|-------------------------------|
A|----1--3-------6-8---------3--|--4----3-4---3-4---4--6-6-4-3--|
E|-1------------------1-x-1-----|-----1-------------------------|

    But even angles look before they tred (forget) Living in another world 



G|------------------------------|-------------------------------|
D|-------------6---------------1|-------------------------------|
A|----1--3-------6-8---------3--|--4----3-4---3-4---4--6-6-4-3--|
E|-1------------------1-x-1-----|-----1-------------------------|

     to you. Living in another world to you. Living in another world






*Outro

G|------------------------------|-----------------------------------------|
D|------------------------------|-----------------------------------------|
A|----------3---------------5-7-|-5-3-------------------------------------|
E|---5----5----3-5----5-5-------|------5-5-x-1-1--1-1---3--3-x-3-x-3------|

       to    you.


G|------------------------------|-------------------------------|
D|------------------------------|-------------------------------|
A|------------------------------|-------------------------------|
E|---5--------------------------|-------------------------------|


G|------------------------------|-------------------------------|
D|------------------------------|---------------------7777777777|
A|------------------------------|-------------------------------|
E|------------------------------|-------------------------------|





*Remaining Verses

(very thumpy bass)

G|------------------------------|-------------------------------|
D|------------------------------|-------------------------------|
A|------------------------------|-------------------------------|
E|--0-55--0-55--0-55--0-55--0-55|--0-55--0-55--0-55--0-55--0-55-|


------Then the song continues on in this order after-------------


Pre Chorus

Chorus

Outro

Chorus (harmonica solo)

Pre Chorus (guitar solo)

Pre Chorus

Chorus

Outro

            
            
Suggest correction
Creating personal tab
Creating personal tab
You can edit any tab online and save it as your Personal.

You can edit, replace or remove any tab part or add personal notes – all changes will be seen only by you.

Personal tabs can be accessed anytime from any device, even offline.
Learn more »
Give kudos to tab author, rate the tab!
1 2 3 4 5
comments
print report bad tab
guest
You may want to rate the tab now too:
select rating
Wanna post a correction for this tab? Suggest correction