Oops, an error
Loading. Please wait.

New Grass Tab

58 views 3 this week
4 commentsread comments
1 2 3 4 5
1 last vote to show rating
add to favorites
launch autoscroll
font size
0
reset
how to read this tab
guitar tuner
Autoscroll
slow
fast
+/-
esc
set tempo
stop
Help us to improve Ultimate-Guitar.com Take our survey!
×
Author
Difficulty
intermediate
About this tab version
Electric guitar and organ/piano arranged for guitar. Was this info helpful? Yes No
[Intro]
3 Bars Rest

E|-----------------|-7/9-------------|-----------------|-7---------7-----|
B|---------------x-|-----------------|---------------7-|-------------7---|
G|-------------x---|-----------------|-----------------|-----------------|
D|-----------------|-----------------|-----------------|-----------------|
A|-----------------|-----------------|-----------------|-----------------|
E|-----------------|-----------------|-----------------|-----------------|

   A                         E                C#m
E||----0-----0-----0-|-----0-----------|-----------------|-----0-----------|
B||o---5-----5-----2-|-----0-----------|---------------0-|-2---4-----2-----|
G||------------------|---------1-------|-----------------|-----------------|
D||------------------|-----------------|-----------------|-----------------|
A||o-----------------|-----------------|-----------------|-----------------|
E||------------------|-----------------|-----------------|-----------------|

                  x5
E|-7----------------||
B|-7-------------7-o||
G|------------------||
D|------------------||
A|-----------------o||
E|------------------||

[Verse 1]
     A                         E                C#m
E||----0-----0-----0-|-----0-----------|-----------------|-----0-----0-----|
B||o---5-----5-----2-|-----0-----------|---------------0-|-2---4-----2-----|
G||------------------|---------1-------|-----------------|-----------------|
D||------------------|-----------------|-----------------|-----------------|
A||o-----------------|-----------------|-----------------|-----------------|
E||------------------|-----------------|-----------------|-----------------|

                 x12
E|-7---------7------||
B|-7-------------7-o||
G|------------------||
D|------------------||
A|-----------------o||
E|------------------||

A   E          C#m
     Lifted up
A            E            C#m
  Reflective in returning love you sing
A   E   C#m         
        Errant days 
A   E           C#m
      Filled me
       A                
Fed me illusion's gate
E            C#m
In temperate stream
        A           E
Welled up within me
C#m           A                  E
   A hunger uncurbed by nature's calling
C#m              A        E
Seven sacraments to song
C#m
Versed in Christ
       A               E
Should strength desert me
C#m             A    E     C#m   A   E   C#m
   They'll come they come
A               E         C#m
   They'll come they come

[Guitar Break]
                               G#m               F#m
E|---0-----0-----0-|---------|---------------7-|-----------7---7-|-------5-7---|
B|---5-----5-----2-|---------|-7-----7-------9-|-9---7-------7---|-7-----0-----|
G|-----------------|---------|-----8-----------|---6-------------|-----6-------|
D|-----------------|---------|-----------------|-----------------|-------------|
A|-----------------|---------|-----------------|-----------------|-------------|
E|-----------------|---------|-----------------|-----------------|-------------|

   C#m               G#m               F#m                             C#m
E|-4-----4---------|---------7-------|---------7-----7-|---7-------7-|-------0---7-7-7-|
B|-5---5-5---7-7---|---7-----7-----7-|-9-7---7-----7---|---7-----7---|-----------------|
G|-----------------|-8-8---8-----8---|-----------------|-------------|---6-6-----------|
D|-----------------|-----------------|-----------------|-------------|-----------------|
A|-----------------|-----------------|-----------------|-------------|-----------------|
E|-----------------|-----------------|-----------------|-------------|-----------------|

   G#m               F#m               C#m
E|---7---7---7---7-|-----7-7---------|-----0-4-0-------|-----------------|-----------------|
B|---7---7-7-7-7-7-|---7-------7-7-7-|-----------------|-----------------|-----------------|
G|-----------------|-----------------|-----------------|-----------------|-----------------|
D|-----------------|-----------------|-----------------|-----------------|-----------------|
A|-----------------|-----------------|-----------------|-----------------|-----------------|
E|-----------------|-----------------|-----------------|-----------------|-----------------|

[Piano/String Break]
F#m  C#m  A  C#m
C#m  F#m  C#m  A  C#m  D#o7
E  Asus2  E  Asus2  E  Asus2  E  Asus2  E
C#m  Asus2  C#m  Asus2  C#m

[Verse 2]
E||----0-----0-----0-|-----0-----------|-----------------|-----0-----0-----|
B||o---5-----5-----2-|-----0-----------|---------------0-|-2---4-----2-----|
G||------------------|---------1-------|-----------------|-----------------|
D||------------------|-----------------|-----------------|-----------------|
A||o-----------------|-----------------|-----------------|-----------------|
E||------------------|-----------------|-----------------|-----------------|

                 x11
E|-7---------7------||
B|-7-------------7-o||
G|------------------||
D|------------------||
A|-----------------o||
E|------------------||

A E         C#m 
     Lifted up
A           E            C#m
  Reflected in returning love you sing
A  E  C#m       A    E   C#m
        Heaven waits
A  E  C#m      A               E    C#m  A  E  C#m
       Someday Christendom may come
    A            E     C#m
Westward evening sun recedent
          A        E
Set my resting vow
C#m   A       E   C#m     A  E  C#m
      Hold in       Open     heart open  heart
open heart

[Guitar Break 2]
                                                         G#m
E|---------------0-|-----------------|-----------------|-----------------|
B|---5-----5-----2-|-----------------|-----------------|-----12------12--|
G|-----------------|-----------------|-----------------|-----13------13--|
D|-----------------|-----------------|-----------------|-----------------|
A|-----------------|-----------------|-----------------|-----------------|
E|-----------------|-----------------|-----------------|-----------------|

   F#m               C#m                             G#m
E|-----------------|-----------------|-------------|-----------------|
B|----12------12---|-----12--12------|------12-----|-12--------------|
G|--13--------13---|-----------------|------13-----|-----------------|
D|-----------------|-----11--11------|-------------|-11----------11--|
A|-----------------|-----------------|-------------|-----------------|
E|-----------------|-----------------|-------------|-----------------|

   F#m               C#m                             G#m
E|-----------------|-----------------|-------------|------------------|
B|-----12--12------|---12------12----|-------------|---12---12-----12-|
G|--13-----13------|---13------13----|--13-13-13---|---13---13-----13-|
D|-----------------|-----------------|--11-11-11---|------------11----|
A|-----------------|-----------------|-------------|------------------|
E|-----------------|-----------------|-------------|------------------|

   F#m
E|-----------------|-----------------|-----------------|-----------------|
B|---12------------|-----------------|-----------------|-----------------|
G|---13------------|-----------------|-----------------|-----------------|
D|-----------------|-----------------|-----------------|-----------------|
A|-----------------|-----------------|-----------------|-----------------|
E|-----------------|-----------------|-----------------|-----------------|

[Organ/String Break 2]
F#m  C#m  A  C#m
C#m  F#m  A  F#m  C#m
C#m  F#m  A  F#m  C#m  D#o7
E  Asus2  E  Asus2  E  Asus2  E  Asus2

[Outro]
     Asus2
E||------------------|-----------------|-----------------|------------------||
B||o-----12----------|-----12----------|-----12----------|-----12----------o||
G||------------------|-----------------|-----------------|------------------||
D||--11----------11--|-11----------11--|-11----------11--|-11----------11---||
A||o-----------------|-----------------|-----------------|-----------------o||
E||------------------|-----------------|-----------------|------------------||

   C#m                Asus2              C#m
E|--------------9---|------------------|----------9-9-9---|------------------|
B|-12--------12--12-|-12-12------------|---12----------12-|---12-12----------|
G|------------------|------------------|-11----11---------|------------------|
D|------------------|-----------11-11--|------------------|------------------|
A|------------------|------------------|------------------|------------------|
E|------------------|------------------|------------------|------------------|

   Asus2              C#m                                   Asus2
E|-9-----9-----9----|---9----9-----9---|-9-----9-----9----|-9-----9-----9----|
B|-12----------12---|---12---------12--|-12----12----12---|-12----12----12---|
G|------------------|------------------|------------------|------------------|
D|------------------|------------------|------------------|------------------|
A|------------------|------------------|------------------|------------------|
E|------------------|------------------|------------------|------------------|

   C#m                                   Asus2             C#m
E|-9-----9-----9----|-9----9-------9---|-9----------------|-9-----9----------|
B|-12----12----12---|-12----12---12-12-|-12-----10--------|-12----12----12---|
G|------------------|------------------|------------9-9---|------------------|
D|------------------|------------------|------------------|------------------|
A|------------------|------------------|------------------|------------------|
E|------------------|------------------|------------------|------------------|

   C#m                Asus2              C#m
E|-9----------9--9--|-9-----9-----9----|-------------9----|---------9--9--9--|
B|-12----12---12-12-|-12----12----12---|-12----12----12---|----12---11-11-11-|
G|------------------|------------------|------------------|------------------|
D|------------------|------------------|------------------|--11---11---------|
A|------------------|------------------|------------------|------------------|
E|------------------|------------------|------------------|------------------|

   Asus2              C#m                                   Asus2
E|-9--9--9------9---|------------------|---------9---9----|-9-----9-----9----|
B|-11-11-11--11-11--|---11--11-11--11--|---11-11-------11-|-12----12----12---|
G|------------------|------------------|------------------|------------------|
D|------------------|------------------|------------------|------------------|
A|------------------|------------------|------------------|------------------|
E|------------------|------------------|------------------|------------------|

   C#m                                   Asus2                 C#m
E|-------------9----|-----------9------|---------------------|------------9-----|
B|-12----12----12---|--------12-----12-|------12-12-12-------|---12--12------12-|
G|------------------|--9--9------------|---9-----------9--9--|---------------13-|
D|------------------|------------------|---------------------|------------------|
A|------------------|------------------|---------------------|------------------|
E|------------------|------------------|---------------------|------------------|

     C#m               Asus2             C#m
E||--9---9---9---9---|-9---9---9---9---|-9---9---9---9----||
B||o-12--12--12--12--|-12--12--12--12--|-12--12--12--12--o||
G||------------------|-----------------|------------------||
D||------------------|-----------------|------------------||
A||o-----------------|-----------------|-----------------o||
E||------------------|-----------------|------------------||

***********************************
| /   Slide up
| x   Dead note
***********************************
Suggest correction
Give kudos to tab author, rate the tab!
1 2 3 4 5
comments
print report bad tab
4 comments total. Showing first comments.
0 reply
stevemac100 10 Nov 13, 2016 05:42 PM

Great tab! Had been hoping someone would post this for a while.

0 reply
AWal2323 5,733 Nov 14, 2016 08:58 AM

Thanks! Great tune, amazing guitar tone.

0 reply
stevemac100 10 Nov 14, 2016 07:11 PM

Yep, guitar tone is awesome - I've tried with Jazzmaster + Princeton but not really getting close.

guest
You may want to rate the tab now too:
select rating
Wanna post a correction for this tab? Suggest correction