Oops, an error
Loading. Please wait.

Taphead Tab

13 views 6 this week
no commentswrite comment
1 2 3 4 5
1 last vote to show rating
add to favorites
launch autoscroll
font size
0
reset
how to read this tab
guitar tuner
Autoscroll
slow
fast
+/-
esc
set tempo
stop
Help us to improve Ultimate-Guitar.com Take our survey!
×
Author
Difficulty
Tuning
intermediate
D# G# C# F# A# D#
About this tab version
As recorded, for solo electric guitar. Was this info helpful? Yes No
[Intro]
      4/4                                                   2/4
Eb||------------------|-----------------|-----------------|---------|
Bb||o-----------------|-----------------|-----------------|---------|
Gb||------------------|-----------------|-----------------|---------|
Db||--------2-----4---|-0---------------|-----------------|---------|
Ab||o-----------------|-----------------|-4---------------|---------|
Eb||--0---------------|-----------------|---------3b------|---------|

    4/4                                                                     2/4    x3
Eb|-----------------|-----------------|-----------------|-----------------|----------||
Bb|-----------------|-----------------|-----------------|-----------------|---------o||
Gb|-----------------|-----------------|-----------------|-----------------|----------||
Db|-------2-----4---|-0---------------|---------0/2-----|-------2---------|----------||
Ab|-----------------|-----------------|-4---------------|-----------------|---------o||
Eb|-0---------------|-----------------|-----0-----------|(0)--------------|----------||

[Verse 1]
    4/4                                                   2/4
Eb|-----------------|-----------------|-----------------|---------|
Bb|-----------------|-----------------|-----------------|---------|
Gb|-----------------|-----------------|-----------------|---------|
Db|-------2-----4---|-0---------------|-----------------|---------|
Ab|-----------------|-----------------|-4---------------|---------|
Eb|-0---------------|-----------------|---------3b------|---------|

    4/4                                                                     2/4
Eb|-----------------|-----------------|-----------------|-----------------|---------|
Bb|-----------------|-----------------|-----------------|-----------------|---------|
Gb|-----------------|-----------------|-----------------|-----------------|---------|
Db|-------2-----4---|-0---------------|---------0/2-----|-------2---------|---------|
Ab|-----------------|-----------------|-4---------------|-----------------|---------|
Eb|-0---------------|-----------------|-----0-----------|(0)--------------|---------|

    4/4                                                   2/4
Eb|-----------------|-----------------|-----------------|---------|
Bb|-----------------|-----------------|-----------------|---------|
Gb|-----------------|-----------------|-----------------|---------|
Db|-------2-----5---|-----------------|-----------------|---------|
Ab|-----------------|-4-----------4-5-|(5)--------------|---------|
Eb|-0---------------|-----------------|---------3b------|---------|

    4/4                                                                     2/4
Eb|-----------------|-----------------|-----------------|-----------------|---------|
Bb|-----------------|-----------------|-----------------|-----------------|---------|
Gb|-----------------|-----------------|-----------------|-----------------|---------|
Db|-------2-----4---|-0---------------|---------0/2-----|-------2---------|---------|
Ab|-----------------|-----------------|-4---------------|-----------------|---------|
Eb|-0---------------|-----------------|-----0-----------|(0)--------------|---------|

[Interlude]
    4/4                                 2/4       4/4
Eb|-----------------|-----------------|---------|-----------------|-----------------|
Bb|-----0-----------|-----------------|-2-------|-----0-----------|-----------------|
Gb|-----0-----------|-----------------|-2-------|-----0-----------|-----------------|
Db|-------0/2-------|(2)--------------|---2-2---|-------0/2-------|(2)--------------|
Ab|-----------------|-----------------|---------|-----------------|-----------------|
Eb|-0---------------|-----------------|---------|-----------------|-----------------|

Eb|-----------------|-----------------|-----------------|
Bb|-----------------|-----------------|-----------------|
Gb|-----------------|-x-------x-x-----|-----------------|
Db|---------------0-|-x-------x-x/2---|(2)--------------|
Ab|-5-4-------------|-x-------x-x-----|-----------------|
Eb|-----0-----------|-----------------|-----------------|

[Verse 2]
    4/4                                                   2/4
Eb|-----------------|-----------------|-----------------|---------|
Bb|-----------------|-----------------|-----------------|---------|
Gb|-----------------|-----------------|-----------------|---------|
Db|-------------4---|-0---------------|-----------------|---------|
Ab|-----------------|-----------------|-4---------------|---------|
Eb|-----------------|-----------------|---------3b------|---------|

    4/4                                                                     2/4
Eb|-----------------|-----------------|-----------------|-----------------|---------|
Bb|-----------------|-----------------|-----------------|-----------------|---------|
Gb|-----------------|-----------------|-----------------|-----------------|---------|
Db|-------2-----4---|-0---------------|---------0/2-----|-------2---------|---------|
Ab|-----------------|-----------------|-4---------------|-----------------|---------|
Eb|-0---------------|-----------------|-----0-----------|(0)--------------|---------|

    4/4                                                   2/4
Eb|-----------------|-----------------|-----------------|---------|
Bb|-----------------|-----------------|-----------------|---------|
Gb|-----------------|-----------------|-----------------|---------|
Db|-------2-----5---|-----------------|-----------------|---------|
Ab|-----------------|-4-----------4-5-|(5)--------------|---------|
Eb|-0---------------|-----------------|---------3b------|---------|

    4/4                                                                     2/4
Eb|-----------------|-----------------|-----------------|-----------------|---------|
Bb|-----------------|-----------------|-----------------|-----------------|---------|
Gb|-----------------|-----------------|-----------------|-----------------|---------|
Db|-------2-----4---|-0---------------|---------0/2-----|-------2---------|---------|
Ab|-----------------|-----------------|-4---------------|-----------------|---------|
Eb|-0---------------|-----------------|-----0-----------|(0)--------------|---------|

[Instrumental]
                                                                          x32
Eb||------------------|-----------------|-----------------|------------------||
Bb||o-----------------|-----------------|-----------------|-----------------o||
Gb||----------3-4-----|-4-----6-3---3-4-|---------3-4-----|-4-----6-3---3-4--||
Db||----4---2---------|-----4-----------|---4---2---------|-----4------------||
Ab||o-----------------|-----------------|-----------------|-----------------o||
Eb||------------------|-----------------|-----------------|------------------||

[Outro] (Approx 6:08)
Eb|-----------------|-----------------|-----------------|-----------------|
Bb|-----------------|-----------------|-----------------|---------0-0-----|
Gb|-----------------|-------------4/6-|-----------------|---------0-0-2---|
Db|-----------------|---------4-2-----|-5\4-------------|---------------4-|
Ab|-----------------|-----------------|-----------------|-----------------|
Eb|-----------------|-----------------|-----------------|-----------------|

                                                          5/4
Eb|-----------------|-----------------|-----------------|---------------------|
Bb|-----------------|-----------------|-----------------|---------------------|
Gb|-----------------|-----------------|-----------------|---------------------|
Db|-----------------|---------2-------|-2-----------0---|-2-4-------------0/2-|
Ab|-----------------|-----------------|-----------------|-----4---------------|
Eb|-------------2/3-|-0-------------0-|-----------------|-------------0-------|

    4/4                                 5/4                   4/4
Eb|-----------------|-----------------|---------------------|-----------------|
Bb|-----------------|-----------------|---------------------|-----------------|
Gb|-----------------|-----------------|---------------------|-----------------|
Db|-2-------2-------|-2-----------0---|-2-4-------------0/2-|-2-------2-------|
Ab|-----------------|-----------------|-----4---------------|-----------------|
Eb|---------------0-|-----------------|-------------0-------|---------------0-|

                      5/4                   4/4
Eb|-----------------|---------------------|-----------------|-----------------|
Bb|-----------------|---------------------|-----------------|-----------------|
Gb|-----------------|---------------------|-----------------|-----------------|
Db|-2-----------0---|-2-4-------------0/2-|-2-------2-------|-2-----------0---|
Ab|-----------------|-----4---------------|-----------------|-----------------|
Eb|-----------------|-------------0-------|---------------0-|-----------------|

    5/4                   4/4                                 5/4
Eb|---------------------|-----------------|-----------------|---------------------||
Bb|---------------------|-----------------|-----------------|---------------------||
Gb|---------------------|-----------------|-----------------|---------------------||
Db|-2-4-------------0/2-|-2-------2-------|-2-----------0---|-2-4-----------------||
Ab|-----4---------------|-----------------|-----------------|---------------------||
Eb|-------------0-------|---------------0-|-----------------|-----2b--------------||

***********************************
| /   Slide up
| x   Dead note
| b   Bend
***********************************
Suggest correction
Give kudos to tab author, rate the tab!
1 2 3 4 5
comments
print report bad tab
guest
You may want to rate the tab now too:
select rating
Wanna post a correction for this tab? Suggest correction