Oops, an error
Loading. Please wait.

The Rainbow tab

967 views 9 this week
no commentswrite comment
1 2 3 4 5
x 4
add to favorites
×
Save as Personal and add changes to this tab that will be seen only by you. Learn more ›
×
You can save this tab as Personal to edit and correct it or add notes. All changes will be seen only by you. Learn more »
launch autoscroll
font size
0
reset
how to read this tab
guitar tuner
edit
Autoscroll
slow
fast
+/-
esc
set tempo
stop
Author
                                The Rainbow
                                 Talk Talk
                                    

                                                               Mark Hollis
                                                          Tim Friese-Green

[Intro 1 - 0:00 - Strings/Trumpet]

Strings arr for guitar
                     G6                Em7               G6
e|-----------------|-0---------------|(0)--------------|(0)--------------|
B|-----------------|-3---------------|(3)--------------|(3)--------------|
G|-----------------|-4---------------|(4)--------------|(4)--------------|
D|-----------------|-5---------------|(5)--------------|(5)--------------|
A|-----------------|-----------------|-----------------|-----------------|
E|-----------------|-----------------|-0---------------|-----------------|

   E7sus4            D6sus2            D6sus2            G6
e|-5---------------|(5)--------------|(5)--------------|-0---------------|
B|-5---------------|(5)--------------|(5)--------------|-3---------------|
G|-4---------------|(4)--------------|(4)--------------|-4---------------|
D|-0---------------|(0)--------------|(0)--------------|-5---------------|
A|-----------------|-----------------|-----------------|-----------------|
E|-0---------------|-----------------|-----------------|-----------------|

   G6                Em7                           G6/9
e|(0)--------------|(0)--------------|(0)----------5---|(5)--------------|
B|(3)--------------|(3)--------------|(3)----------5---|(5)--------------|
G|(4)--------------|(4)--------------|(4)----------4---|(4)--------------|
D|(5)--------------|(5)--------------|(5)----------5---|(5)--------------|
A|-----------------|-----------------|-----------------|-----------------|
E|-----------------|-0---------------|-----------------|-----------------|

   Emadd4      Emadd4/F#               G6/9   G6         Em7
e|-5----------(5)--|(5)--------------|(5)-----0--------|(0)--------------|
B|-5----------(5)--|(5)--------------|(5)-----3--------|(3)--------------|
G|-4----------(4)--|(4)--------------|(4)-----4--------|(4)--------------|
D|-5----------(5)--|(5)--------------|(5)-----5--------|(5)--------------|
A|-----------------|-----------------|-----------------|-----------------|
E|-0-----------2---|(2)--------------|-----------------|-0---------------|

   G6                            G6/9      Emadd11         Em11/F# 
e|-0---------------|(0)----------5---|(5)--------------|(5)--------------|
B|-3---------------|(3)----------5---|(5)--------------|(5)--------------|
G|-4---------------|(4)----------4---|(4)--------------|(4)--------------|
D|-5---------------|(5)----------5---|(5)--------------|(5)--------------|
A|-----------------|-----------------|-----------------|-----------------|
E|-----------------|-----------------|-----0-----------|(0)-2------------|

                     G6                Em7               G6
e|(5)--------------|-0---------------|(0)--------------|(0)--------------|
B|(5)--------------|-3---------------|(3)--------------|(3)--------------|
G|(4)--------------|-4---------------|(4)--------------|(4)--------------|
D|(5)--------------|-5---------------|(5)--------------|(5)--------------|
A|-----------------|-----------------|-----------------|-----------------|
E|(2)--------------|-----------------|-0---------------|-----------------|

                            Em7               Em7/F#
e|(0)--------------|(0)--------------|(0)--------------|(0)--------------|
B|(3)--------------|(3)--------------|(3)--------------|(3)--------------|
G|(4)--------------|(4)--------------|(4)--------------|(4)--------------|
D|(5)--------------|(5)--------------|(5)--------------|(5)--------------|
A|-----------------|-----------------|-----------------|-----------------|
E|-----------------|--------0--------|--------2--------|(2)--------------|

                                       Organ arr for guitar
   G6 (cont. sim)                      G6                G
e|(0)--------------|(0)--------------|-----------------|-----------------|
B|(3)--------------|(3)--------------|-5---------------|-3---------------|
G|(4)--------------|(4)--------------|-4---------------|-4---------------|
D|(5)--------------|(5)--------------|-5---------------|-5---------------|
A|-----------------|-----------------|-----------------|-----------------|
E|-----------------|-----------------|-----------------|-----------------|

                                       Strings arr for guitar
   G       Gsus4                       G6
e|-----------------|-----------------|-0---------------|(0)--------------|
B|(3)------3-------|(3)--------------|-3---------------|(3)--------------|
G|(4)------5-------|(5)--------------|-4---------------|(4)--------------|
D|(5)------5-------|(5)--------------|-5---------------|(5)--------------|
A|-----------------|-----------------|-----------------|-----------------|
E|-----------------|-----------------|-----------------|-----------------|

e|(0)--------------|
B|(3)--------------|
G|(4)--------------|
D|(5)--------------|
A|-----------------|
E|-----------------|

[Intro 2 - 1:45]

(11 Bars sound effects)

[Intro 3 - 2:06 - Guitar/Harmonica]

   Am7                         A13sus4   Am7                         A13sus4
e|-------0---------|(0)----0-0-0-0-----|-0---------------|(0)----0-0-0-0-----|
B|-------1---------|(1)----1-1/3-3-----|-1---------------|(1)----1-1/3-3-----|
G|-------0---------|(0)----0-0-0-0-----|-0---------------|(0)----0-0/0-0-----|
D|-2-----2---------|(2)----2-2/4-4---4-|-2---------------|(2)----2-2/4-4---4-|
A|-0-----0---------|(0)----0-0-0-0---0-|-0---------------|(0)----0-0-0-0---0-|
E|-----------------|-------------------|-----------------|-------------------|
   Q.    Q.    Q     Q.    E S S Q   E   W                 Q.    E S S Q   E 

     Am7                       A13sus4     Am7                       A13sus4
e|-0-0-----3-------|(3)----3-3-5-5-----|-----------------|---------0-0-0-0-0-|
B|-3\1-----1-------|(1)----1-1/3-3-----|-----------------|---------1/3-3-3-3-|
G|-0-0-----0-------|(0)----0-0-0-0---x-|-0-0-------------|(0)----x-0-0-0-0-0-|
D|-4\2---2-2-------|(2)----2-2/4-4-----|-4\2-------------|(2)----x-2/4-4-4-4-|
A|-0-0---0-0-------|(0)----0-0-0-0-----|-0-0-------------|(0)----x-0-0-0-0-0-|
E|-----------------|-------------------|-----------------|-------------------|
   E E E E H         Q.    E S S Q   E   E E H.            Q.    E S S E.S E

     Am7                       A13sus4     Am7                       A13sus4
e|-0-0-------------|-------0-0-0-0-----|-0-0-------------|-------3p0-0-------|
B|-3\1-------------|-------1-1/3-3-----|-3\1-------------|-------1-1/3-------|
G|-0-0-------------|-------0-0-0-0-----|-0-0-------------|-------0-0-0-------|
D|-4\2-------------|-------2-2/4-4-----|-4\2-------------|-------2-2/4-------|
A|-0-0-------------|-------0-0-0-0-----|-0-0-------------|-------0-0-0-------|
E|-----------------|-------------------|-----------------|-------------------|
   E E H.            Q.    E S S Q   E   E E H.            Q.    E S S Q.

     Am7                       A13sus4     Am7                   A13sus4
e|-----------------|-------3-3-5-5-5-5-|-0-0-----------3-|-------5---5-5-5-|
B|-----------------|-------1-1/3-3-3-3-|-3\1-----------1-|-------3---3-3-3-|
G|-----------------|-------0-0-0-0-0-0-|-0-0-----------0-|-------0---0-0-0-|
D|-----------------|-------2-2/4-4-4-4-|-4\2-----------2-|-------4---4-4-4-|
A|-----------------|-------0-0-0-0-0-0-|-0-0-----------0-|-------0---0-0-0-|
E|-----------------|-------------------|-----------------|-----------------|
   W                 Q.    E S S Q   E   E E H       E E   Q.    Q   E E E

     Am7                       A13sus4     Am7                       A13sus4
e|-0-0-------------|-----3---0-0--0--0-|-0-0-------------|---------0-0-0-----|
B|-3\1-------------|-------1-1/3--3--3-|-3\1-------------|---------1/3-3-----|
G|-0-0-------------|---------0-0--0--0-|-0-0-------------|---0-----0-0-0-----|
D|-4\2-------------|---------2/4--4--4-|-4\2-------------|---2-----2/4-4---4-|
A|-0-0-------------|---------0-0--0--0-|-0-0-------------|---0-----0-0-0---0-|
E|-----------------|-------------------|-----------------|-------------------|
   E E H.            Q   E E S E  E. E   E E H.            E Q.    S S Q   E

     Am7                       A13sus4   Em
e|-0-0-------------|---------0-0-------|-----------------|-----------0-0-0-|
B|-3\1-------------|---------1/3-------|-----------------|-----------3-3-3-|
G|-0-0-------------|---------0-0-------|-----------------|-----------0-0-0-|
D|-4\2-------------|---------2/4-------|-----------------|-----------------|
A|-0-0-------------|---------0-0-------|-----------------|-----------------|
E|-----------------|-------------------|-----------------|-----------------|
   E E H.            H       S S Q.      W                 H       S E E.E

[Verse 1]

Am7
   Oh yeah
                   A13sus4 Am7   A13sus4
The world's turned upside  down
Am7              A13sus4  Am7  A13sus4
   Jimmy Finn is out
     Am7                     A13sus4  Am7
Well how can that be fair at all?

[Chorus 1]

F#m7  A6  A6/9
  Oh  Lenient   
    A    A6  A      Badd9
The song the lawyer sang
B   B7       Am7
Our nation's wrong

[Interlude 1]
  
  Piano arr for guitar
  (Am7)        E     Em                            E     Em
e|-----------------|-----------------|-----------------|-----------------|
B|-------------0---|-5---------------|-------------0---|-5---------------|
G|-------------1---|-4---------------|-------------1---|-4---------------|
D|-------------2---|-5---------------|-------------2---|-5---------------|
A|-----------------|-----------------|-----------------|-----------------|
E|-------------0---|-0---------------|-------------0---|-0---------------|

                                               Guitar...
   Am7         E     Em                        E
e|-------------0---|-----------------|-----------0-0-0-|
B|-------------0---|-5---------------|-----------3-3-3-|
G|-------------1---|-4---------------|-----------0-0-0-|
D|-------------2---|-5---------------|-----------------|
A|-----------------|-----------------|-----------------|
E|-------------0---|-0---------------|-----------------|
                                       H       S E E.E

   Am7                       A13sus4     Am7                       A13sus4
e|-0---------------|-------0---0-0---0-|-0-0-------------|---------0-0-------|
B|-3---------------|-------1--/3-3---3-|-3\1-------------|---------1/3-------|
G|-0---------------|-------0---0-0---0-|-0-0-------------|---------0-0-------|
D|-4---------------|-------2--/4-4---4-|-4\2-------------|---------2/4-------|
A|-0---------------|-------0---0-0---0-|-0-0-------------|---------0-0-------|
E|-----------------|-------------------|-----------------|-------------------|
   W                 Q.    E.  S Q   E   E E H.            Q.    E S S Q.

     Am7                       A13sus4     Am7                     A13sus4 Am7
e|-0-0-------------|---0---0---0-0-----|-0-0-------------|---3---0-0-0---0---|
B|-3\1-------------|---1---1--/3-3-----|-3\1-------------|-----1-1-3-3---3\1-|
G|-0-0-------------|---0-0-0---0-0-----|-0-0-------------|-------0-0-0---0-0-|
D|-4\2-------------|---2-2-2--/4-4-----|-4\2-------------|-------2-4-4---4\2-|
A|-0-0-------------|---0-0-0---0-0-----|-0-0-------------|-------0-0-0---0-0-|
E|-----------------|-------------------|-----------------|-------------------|
   E E H.            E E E E.  S Q.      E E H.            E E E S S Q   E E

   Em
e|---0-------------|-----------------|
B|---0-------------|-----------------|
G|-----------------|-----------------|
D|-----------------|-----------------|
A|-----------------|-----------------|
E|-----------------|-----------------|
   E E H.            W

[Verse 2]

                     Am7          A13sus4  Am7  A13sus4
Well how can that be fair at all?
Am7          A13sus4    Am7 
    Repented   changed
            A13sus4  Am7     A13sus4  Am7
Aware where I have   wronged

[Chorus 2]

F#m7 A6       A6/9
Un   found corrupt
     A        A6 A   Badd9
This song the jailer sings
B  B7       Am7
My time has run

[Interlude 2 - Piano]

  Piano arr for guitar
  (Am7)        E     Em                            E     Em
e|-----------------|-----------------|-------------0---|-----------------|
B|-------------0---|-5---------------|-------------0---|-5---------------|
G|-------------1---|-4---------------|-------------1---|-4---------------|
D|-------------2---|-5---------------|-------------2---|-5---------------|
A|-----------------|-----------------|-----------------|-----------------|
E|-------------0---|-0---------------|-------------0---|-0---------------|

  (Em)         E     Em                            E     Em
e|-----------------|-----------------|-------------0---|-----------------|
B|-------------0---|-5---------------|-------------0---|-5---------------|
G|-------------1---|-4---------------|-------------1---|-4---------------|
D|-------------2---|-5---------------|-------------2---|-5---------------|
A|-----------------|-----------------|-----------------|-----------------|
E|-------------0---|-0---------------|-------------0---|-0---------------|

[Interlude 3 - Organ]

   Guitar arr for organ
   E5                Em7               Csus2/E               Dsus2
e|-----------------|-----------------|-----------------|-----------------|
B|-5---------------|-3---------------|-3---------------|(3)--5-----------|
G|-4---------------|-4---------------|-5---------------|(5)--2-----------|
D|-----------------|-----------------|-----------------|-----0-----------|
A|-----------------|-----------------|-----------------|-----------------|
E|-0---------------|(0)--------------|(0)--------------|(0)--------------|

           D5                    C/E                         Em
e|-----------------|-----------------|-----------------|-----------------|
B|(5)------3-------|(3)--------------|-----------------|-----------------|
G|(2)------2-------|(2)----------5---|(5)--------------|(5)--4-----------|
D|(0)-----(0)------|(0)----------5---|(5)--------------|(5)--5-----------|
A|-----------------|-----------------|-----------------|-----------------|
E|-----------------|-------------0---|(0)--------------|(0)-(0)----------|

           C/E                   Emadd4                  Em
e|-----------------|-----------------|-----------------|-----------------|
B|-----------------|-----------------|-----------------|-----------------|
G|(4)------5-------|(5)----------2---|(2)--------------|-4---------------|
D|(5)------5-------|(5)----------5---|(5)--------------|-5---------------|
A|-----------------|-----------------|-----------------|-----------------|
E|(0)-----(0)------|(0)---------(0)--|(0)--------------|(0)--------------|

e|-----------------|
B|-----------------|
G|(4)--------------|
D|(5)--------------|
A|-----------------|
E|(0)--------------|

[Interlude 4 - Guitar/Harmonica]

   Am7                       A13sus4       Am7                     A13sus4
e|-----------------|-----0-0-0-0---x-0-|-0-0---0---------|-----0---0-------|
B|-----------------|-----1-1/3-3---x-3-|-3\1---1---------|-----1---3-------|
G|-0---------------|-0---0-0-0-0---x-0-|-0-0---0---------|-----0---0-------|
D|-2---------------|-2---2-2/4-4---x-4-|-4\2---2---------|-----2---4-------|
A|-0---------------|-0---0-0-0-0---x-0-|-0-0---0---------|-----0---0-------|
E|-----------------|-------------------|-----------------|-----------------|
   W                 Q   E S S Q   E E   E E E E H         Q   E E H

     Am7                     A13sus4       Am7                     A13sus4
e|-0-0---0---0---0-|---0-0-0-0-0-------|-0-0---0---------|-----0-0-0---------|
B|-3\1---1---1---1-|---1-1-1/3-3-------|-3\1---1---------|-----1-1/3-------3-|
G|-0-0---0---0---0-|---0-0-0-0-0-------|-0-0---0---------|-----0-0-0-0-----0-|
D|-4\2---2---------|---2-2-2/4-4-------|-4\2---2---------|-----2-2/4-------4-|
A|-0-0---0---------|---0-0-0-0-0-------|-0-0---0---------|-----0-0-0---------|
E|-----------------|-------------------|-----------------|-------------------|
   E E E Q   E E E   E E E S S H         E E E E H         Q   E S S Q.    E

     Am7                     A13sus4       Am7                     A13sus4
e|-0-0-----0-------|-------0-0---------|-0-0---0---------|-----0---0---------|
B|-3\1-----1-------|-------1/3---------|-3\1---1---------|-----1--/3---------|
G|-0-0---0-0-------|-------0-0---------|-0-0---0---------|-----0---0---------|
D|-4\2---2-2-------|-------2/4---------|-4\2---2---------|-----2--/4---------|
A|-0-0---0-0-------|-------0-0---------|-0-0---0---------|-----0---0---------|
E|-----------------|-------------------|-----------------|-------------------|
   E E E Q H         Q   E S S H         E E E E H         Q   E.  S H      

     Am7                     A13sus4           Am7
e|-0-0---0---------|---0-0-0-0-0-------|-0-0---0---------|-------------------|
B|-3\1---1---------|---1-1-1/3-3-------|-3\1---1---------|-------------------|
G|-0-0---0---------|---0-0-0-0-0-------|-0-0---0---------|-------------------|
D|-4\2---2---------|---2-2-2/4-4-------|-4\2---2---------|-------------------|
A|-0-0---0---------|---0-0-0-0-0-------|-0-0---0---------|-------------------|
E|-----------------|-------------------|-----------------|-------------------|
   E E E E H         E E E S S H         E E E E H         W

[Chorus 3]

F#m7  A6        A6/9     A
   Oh sound the victim's song
    A6 A     Badd9
The trial is gone
    B     B7        D7b9
The trial goes on
F#m7  A6                 A     B7
      Sound the victim's song

[Segue into Eden - 8:01]

                                       C#m
e|-----------------|<7>--------------|<12>-------------|<7>--------------|
B|-----------------|-----------------|-----------------|-----------------|
G|-----------------|-----------------|-----------------|-----------------|
D|-----------------|-----------------|-----------------|-----------------|
A|-----------------|-----------------|-----------------|-----------------|
E|-----------------|-----------------|-----------------|-----------------|

                     C#m               C#m/D#
e|<12>-------------|-----------------|-----------------|<7>--------------|
B|------------<7>--|-----------------|-----------------|-----------------|
G|-----------------|-----------------|-----------------|-----------------|
D|-----------------|-----------------|-----------------|-----------------|
A|----<9>----------|-----------------|-----------------|-----------------|
E|-----------------|-----------------|-----------------|-----------------|
 
   C#m                                                   C#m     C#m/D#
e|-----------------|------------<12>-|<12>-------------|-----------------|
B|-----------------|-----------------|------------<7>--|-----------------|
G|-----------------|-----------------|-----------------|-----------------|
D|-----------------|-----------------|-----------------|-----------------|
A|-----------------|-----------------|----<9>----------|-----------------|
E|-----------------|-----------------|-----------------|-----------------|

                                       C#m
e|-----------------|<7>--------------|-----------------|-----------------|
B|-----------------|-----------------|-----------------|-----------------|
G|-----------------|-----------------|-----------------|-----------------|
D|-----------------|-----------------|-----------------|-----------------|
A|-----------------|-----------------|-----------------|-----------------|
E|-----------------|-----------------|-----------------|-----------------|

                     C#m               C#m/D#
e|<12>-------------|-----------------|-----------------|-----------------|
B|------------<7>--|-----------------|-----------------|<7>--------------|
G|-----------------|-----------------|-----------------|-----------------|
D|-----------------|-----------------|-----------------|-----------------|
A|----<9>----------|-----------------|-----------------|-----------------|
E|-----------------|-----------------|-----------------|-----------------|

                     C#m
e|------<7>--------|-----------------|-----------------||
B|------------<7>--|-----------------|-----------------||
G|-----------------|-----------------|-----------------||
D|-----------------|-----------------|-----------------||
A|-----------------|-----------------|-----------------||
E|-----------------|-----------------|-----------------||

            
            
Suggest correction
Creating personal tab
Creating personal tab
You can edit any tab online and save it as your Personal.

You can edit, replace or remove any tab part or add personal notes – all changes will be seen only by you.

Personal tabs can be accessed anytime from any device, even offline.
Learn more »
comments
print report bad tab
guest
You may want to rate the tab now too:
select rating
Wanna post a correction for this tab? Suggest correction