Oops, an error
Loading. Please wait.

Animals Tab

version 1
version 1

Whole song

883 views 9 this week
no commentswrite comment
1 2 3 4 5
3 more votes to show rating
add to favorites
launch autoscroll
font size
0
reset
how to read this tab
guitar tuner
Autoscroll
slow
fast
+/-
esc
set tempo
stop
Help us to improve Ultimate-Guitar.com Take our survey!
×
Author
Animals
Talking Heads
Fear of Music
Transcribed by Jody

Intro

F#m7
e|-2------2--------2---------|
b|-2------2--------2---------|
g|-2------2--------2---------|x4
d|-2------2--------2---------|
a|-x------x--------x---------|
D|-2------2--------2---------|

Verse

e|---------------------------------|
b|------12*----11*----11-11-11-11*-|
g|------10*----10*----10-10-10-10*-|x8
d|-------9*-----9*-----9--9--9--9*-|
a|---------------------------------|
D|---------------------------------|
Chorus
e|-12-11------------------------------------|
b|-------10-9-----12-----12----12-----10----|
g|----------------10-----10----10------8----|x4
d|-----------------9------9-----9------7----|
a|------------------------------------------|
D|------------------------------------------|

Ending
e|----5--------------------------|
b|----5--------------------------|
g|----6--------------------------|
d|----7--------------------------|
a|----7--------------------------|
D|----5--------------------------|
The ending stays on the A chord, but I couldn't pick out any particular rhythm, so make 
up your own! :D

Order:
Intro
Verse
Chorus
Intro
Verse
Chorus
Verse
Chorus
Intro
Ending

This is the first time I've ever tabbed something out
It may not be completely accurate, but I gladly welcome editors
I searched all over for this song but no one had it!
I hope you enjoy this rendition :)

Lyrics:

I'm mad and that's a fact
I found out animals don't help
Animals think they're pretty smart
Shit on the ground, see in the dark

They wander around like a crazy dog
Make a mistake in the parking lot
Always bumping into things
Always let you down, down, down, down
Eh, eh, eh, eh

Animals think they understand
Most of them are a big mistake
Animals want to change my life
I will ignore, I don't know such place

They're never there when you need them
They're never there when you call them
They're never there when you need them
They're never there when you call them down
Down, down, down

I know the animals are laughing at us
Don't even know what a joke is
I won't follow animal's advice
I don't care if they're laughing at us

They're never there when you need them
They're never there when you call them
They're never there when you need them
They're never there when you call them down
Down, down
Eh, eh, eh

They say they don't need money
They're living on nuts and berries
They say animals don't worry
They're living on nuts and berries

You know animals are hairy?
They say animals don't worry
They think they know what's best
They're making a fool of us

They ought to be more careful
They're setting a bad example
They say animals don't worry
They're living on nuts and berries

They're setting a bad example
They ought to be more careful
You know animals are hairy?
They're living on nuts and berries

They want to know what's best
They're making a fool of us
They ought to be more careful
They're setting a bad example

They like to laugh at people
They're setting a bad example
They have untroubled lives
They think every thing's nice

They say they don't need money
They say animals don't worry
They're living on nuts and berries
You know animals are hairy?

They think they know what's best
They're making a fool of us
They like to laugh at people
They're making a bad example

They say they don't need money
You know animals are hairy?
They're living on nuts and berries
They say they don't need money
They're setting a bad example
Suggest correction
Give kudos to tab author, rate the tab!
1 2 3 4 5
comments
print report bad tab
guest
You may want to rate the tab now too:
select rating
Wanna post a correction for this tab? Suggest correction