Oops, an error
Loading. Please wait.

Born Under Punches The Heat Goes On Bass

version 1
version 1

Whole song

Interactive

8,366 views 36 this week
3 commentsread comments
1 2 3 4 5
x 3
add to favorites
launch autoscroll
font size
0
reset
guitar tuner
×
Best way to learn
"Born Under Punches The Heat Goes On"
Autoscroll
slow
fast
+/-
esc
set tempo
stop
This is the part Tina plays in the live version from The Name of This Band is Talking 
 On the Remain in Light version there's some other funky accents going on, but the main 
melody is the same.  Repeat for the entirety of the song and enjoy.

G---|-------------------8---7------------------------------15-|
D---|-------------------------5-------------------------------|
A-5-|-----5-h6-p5-h6------------------------------------------|
E---|-3--------------3-----------0-3-0-3-0-3-0----0-333-------|

I am not a burning building...I'm a tumbler.
Suggest correction
Give kudos to tab author, rate the tab!
1 2 3 4 5
comments
print report bad tab
3 comments total.
0 reply
Indie Purist 949 May 14, 2014 12:15 PM, edited at 04:16 pm

Sounds more like this (by the way that's two 1s, not an 11):

0 reply
Indie Purist 949 May 14, 2014 12:18 PM

G---|---------------------------------------------------------|
D---|---------------------------------------------X8----------|
A-5-|---5/6/5/6/5/6~-5----------------------------------------|
E---|-3----------------3--11-3-1-3-1-3-1-3-1-333--------------|

0 reply
valuevillage 61 Aug 27, 2015 09:36 AM, edited at 01:37 pm

This tab is very wrong, see version 2

guest
You may want to rate the tab now too:
select rating
Wanna post a correction for this tab? Suggest correction