Oops, an error
Loading. Please wait.

Im Not In Love Tab

3,662 views 9 this week
2 commentsread comments
1 2 3 4 5
worth learning
x 3
add to favorites
launch autoscroll
font size
0
reset
how to read this tab
guitar tuner
Autoscroll
slow
fast
+/-
esc
set tempo
stop
Help us to improve Ultimate-Guitar.com Take our survey!
×
-------------------------------------------------------------------------------
I'm Not In Love - Talking Heads
-------------------------------------------------------------------------------
Tabbed by: David K
Email: thischarmingman13@gmail.com

Tuning: Standard

e|-------0-0-----------0-0-----------0-0-------------------------------------|
B|-------.-.-----------.-.-----------.-.-------------------------------------|
G|-------5-5-----------5-5-----------5-5-------------------------------------|
D|-5-7-.-7-7-----5-7-.-7-7-----5-7-.-7-7--7-5-3-2----------------------------|
A|---------------------------------------------------------------------------|
E|---------------------------------------------------------------------------|

e|-----------------------------------------------------------------------------|
B|-5-5----5-5-----5-5----------------------------------------------------------|
G|-5-4----5-4-----5-4----------------------------------------------------------|
D|-5-5----5-5-----5-5-7--------------------------------------------------------|
A|--^---------5-------7--------------------------------------------------------|
E|repeat------5-------5--------------------------------------------------------|
E|------------3----------------------------------------------------------------|


| /  slide up
| \  slide down
| h  hammer-on
| p  pull-off
| ~  vibrato
| +  harmonic
| .  Mute note
===============================================================================
Suggest correction
Give kudos to tab author, rate the tab!
1 2 3 4 5
comments
print report bad tab
2 comments total.
0 reply
bennyshambles78 4,124 wrote on August 15 2014, 12:27 pm

Lack of accuracy. Tab incomplete. Clearly wrong.

0 reply
visionset 10 wrote on July 24 2016, 10:17 am

Buildings & Food copy I have seems to be in this key


e|-----------------------------------------------------------------------------|
B|-6-6----6-6-----6-6----------------------------------------------------------|
G|-6-5----6-5-----6-5----------------------------------------------------------|
D|-6-6----6-6-6---6-6-8--------------------------------------------------------|
A|------------6-------8--------------------------------------------------------|
E|------------4-------6--------------------------------------------------------|

guest
You may want to rate the tab now too:
select rating
Wanna post a correction for this tab? Suggest correction