Oops, an error
Loading. Please wait.

Life During Wartime Tab

version 1
version 1

Whole song

Interactive

34,740 views 84 this week
2 commentsread comments
1 2 3 4 5
x 6
add to favorites
launch autoscroll
font size
0
reset
how to read this tab
guitar tuner
Autoscroll
slow
fast
+/-
esc
set tempo
stop
Help us to improve Ultimate-Guitar.com Take our survey!
×
(E A D G B E)
(Gtr 1)
  Q=140
 4/4
(Gtr 1)
  Q  E E E E Q    E E E E E E Q    E E E E E E E E   +Q   e e e e e E
e|---------------|----------------|-----------------|------5-5-5-5-5-5--|
B|---------------|----------------|-----------------|------5-5-5-5-5-5--|
G|--------5------|-5h6-5h6-5------|---------5-------|----------------5--|
D|----5s7-5-7----|-5-------5-7----|---5s7---5-----7-|-(7)---------------|
A|----5s7--------|----------------|---5s7-----7---7-|-(7)---------------|
E|---------------|----------------|-----------------|-------------------|

   +E  E E E E E Q    E E E E E E Q    E E E E E E E E   +Q   e e e e e E
e|-(5)--------------|----------------|-----------------|------5-5-5-5-5-5-|
B|-(5)--------------|----------------|-----------------|------5-5-5-5-5-5-|
G|-(5)-------5------|-5h6-5h6-5------|---------5-------|----------------5-|
D|-------5s7-5-7----|-5-------5-7----|---5s7---5-----7-|-(7)--------------|
A|-------5s7--------|----------------|---5s7-----7---7-|-(7)--------------|
E|------------------|----------------|-----------------|------------------|

[Verses 1,2 & 3]
     $
     +E   E E  E E  E Q      E  E E  E E  E Q
e|--(5)-------------------|---------------------|
B|o-(5)-------------------|---------------------|
G|--(5)---------5---------|-5h=6-5h=6-5---------|
D|---------5s=7-5--7------|-5---------5--7------|
A|o--------5s=7-----------|---------------------|
E|------------------------|---------------------|
(Play this only during second and third verses)(Below)

     E   E E  E E  E E  E   E  E E  E E  E E  E
e|------12---12---12---12-|---12---12---12---12-|
B|o-----13---13---13---13-|---13---13---13---13-|
G|------14---14---14---14-|---14---14---14---14-|
D|------------------------|---------------------|
A|o-----------------------|---------------------|
E|------------------------|---------------------|

                         1.,2.,3.
   E  E E  E E  E E  E   +Q     e  e e  e e  E   (4x)
e|---------------------|--------5--5-5--5-5--5---|
B|---------------------|--------5--5-5--5-5--5--o|
G|-----------5---------|---------------------5---|
D|----5s7----5-------7-|-(7)---------------------|
A|----5s7-------7----7-|-(7)--------------------o|
E|---------------------|-------------------------|

   E  E E  E E  E E  E    E   E E  E E  E E  E   (4x)
e|---12---12---12---12-|-----12---12---12---12---|
B|---13---13---13---13-|-----13---13---13---13--o|
G|---14---14---14---14-|-----14---14---14---14---|
D|---------------------|-------------------------|
A|---------------------|------------------------o|
E|---------------------|-------------------------|

  4.
                         PM-----|
  Q  e e e e e E   +Q    E   E   E  E E E
E|----5-5-5-5-5-0-|-(0)--(0)-(0)-(0)-0---0-|
B|----5-5-5-5-5-0-|-(0)--(0)-(0)-(0)-0---0-|
G|--------------1-|-(1)------------------1-|
D|-7------------2-|-(2)------------------2-|
A|-7------------2-|-(2)--------------------|
E|--------------0-|-(0)--------------------|

       PM|                 PM-----|
  +Q   E E E E E E   +Q    E   E   E  E E E
E|-(0)--0-0---------|------(0)-(0)-(0)-0---0-|
B|-(0)--0-0---------|------(0)-(0)-(0)-0---0-|
G|-(1)--------------|----------------------1-|
D|-(2)--------------|----------------------2-|
A|----------2-0-----|------------------------|
E|--------------3-0-|-(0)--------------------|

       PM|                 PM-----|
  +Q   E E E E E E   +Q    E   E   E  E E E
E|-(0)--0-0---------|------(0)-(0)-(0)-0---0-|
B|-(0)--0-0---------|------(0)-(0)-(0)-0---0-|
G|-(1)--------------|----------------------1-|
D|-(2)--------------|----------------------2-|
A|----------2-0-----|------------------------|
E|--------------3-0-|-(0)--------------------|

       PM|                 PM-----|
  +Q   E E E E E E   +Q    E   E   E  E E E
E|-(0)--0-0---------|------(0)-(0)-(0)-0---0-|
B|-(0)--0-0---------|------(0)-(0)-(0)-0---0-|
G|-(1)--------------|----------------------1-|
D|-(2)--------------|----------------------2-|
A|----------2-0-----|------------------------|
E|--------------3-0-|-(0)--------------------|

                      D.S.
        PM|
   +Q   E E E E E     +E
e|-(0)--0-0---------------|----|
B|-(0)--0-0---------------|----|
G|-(1)--------------------|----|
D|-(2)--------------------|----|
A|----------2-0-----------|----|
E|--------------3b3.5-(3)-|----|


************************************

| h    Hammer-on
| (n)  Ghost note
| b    Bend
| PM   Palm mute

************************************
Suggest correction
comments
print report bad tab
2 comments total.
-1 reply
habalushy 948 Nov 23, 2008 06:11 PM

i think the 5h6 should be a 5h7

0 reply
lunchboxattacks 1,082 Nov 27, 2008 01:04 PM

Well i think youre wrong.Take another listen and you'll see:)

guest
You may want to rate the tab now too:
select rating
Wanna post a correction for this tab? Suggest correction